ISO-10303-21;
HEADER;
FILE_DESCRIPTION (( 'STEP AP203' ),
    '1' );
FILE_NAME ('960660.step',
    '2021-11-08T12:44:18',
    ( '' ),
    ( '' ),
    'SwSTEP 2.0',
    'SolidWorks 2019',
    '' );
FILE_SCHEMA (( 'CONFIG_CONTROL_DESIGN' ));
ENDSEC;

DATA;
#1 = CC_DESIGN_SECURITY_CLASSIFICATION ( #103, ( #8 ) ) ;
#2 = EDGE_CURVE ( 'NONE', #195, #195, #100, .T. ) ;
#3 = ORIENTED_EDGE ( 'NONE', *, *, #81, .F. ) ;
#4 = DATE_AND_TIME ( #59, #218 ) ;
#5 = EDGE_LOOP ( 'NONE', ( #41 ) ) ;
#6 = EDGE_CURVE ( 'NONE', #159, #159, #191, .T. ) ;
#7 = AXIS2_PLACEMENT_3D ( 'NONE', #121, #193, #43 ) ;
#8 = PRODUCT_DEFINITION_FORMATION_WITH_SPECIFIED_SOURCE ( 'ANY', '', #108, .NOT_KNOWN. ) ;
#9 = DIRECTION ( 'NONE',  ( 3.491481338843133355E-15, -1.225232690407966814E-16, 1.000000000000000000 ) ) ;
#10 = DIRECTION ( 'NONE',  ( 3.491481338843133355E-15, -1.225232690407966814E-16, 1.000000000000000000 ) ) ;
#11 = CC_DESIGN_PERSON_AND_ORGANIZATION_ASSIGNMENT ( #26, #89, ( #194 ) ) ;
#12 = CLOSED_SHELL ( 'NONE', ( #84, #37, #179, #171, #45 ) ) ;
#13 = CARTESIAN_POINT ( 'NONE',  ( 1.547778112351126981E-14, -1.999999999999997780, 4.433012701892221408 ) ) ;
#14 = FACE_OUTER_BOUND ( 'NONE', #117, .T. ) ;
#15 = CARTESIAN_POINT ( 'NONE',  ( 1.396592535537253342E-14, 1.499759782661853502E-32, 4.000000000000000000 ) ) ;
#16 = CARTESIAN_POINT ( 'NONE',  ( 1.396592535537253342E-14, -1.750000000000000222, 4.000000000000000000 ) ) ;
#17 = DIRECTION ( 'NONE',  ( 3.491481338843133355E-15, -1.225232690407966814E-16, 1.000000000000000000 ) ) ;
#18 =( NAMED_UNIT ( * ) PLANE_ANGLE_UNIT ( ) SI_UNIT ( $, .RADIAN. ) );
#19 = APPLICATION_CONTEXT ( 'configuration controlled 3d designs of mechanical parts and assemblies' ) ;
#20 = UNCERTAINTY_MEASURE_WITH_UNIT (LENGTH_MEASURE( 1.000000000000000082E-05 ), #105, 'distance_accuracy_value', 'NONE');
#21 = EDGE_CURVE ( 'NONE', #139, #139, #151, .T. ) ;
#22 = SECURITY_CLASSIFICATION_LEVEL ( 'unclassified' ) ;
#23 = CARTESIAN_POINT ( 'NONE',  ( -1.497256976004993528E-30, -1.749999999999999778, -4.288314416427882862E-16 ) ) ;
#24 = DIRECTION ( 'NONE',  ( 3.491481338843133355E-15, -1.224646799147353454E-16, 1.000000000000000000 ) ) ;
#25 = ORIENTED_EDGE ( 'NONE', *, *, #21, .F. ) ;
#26 = PERSON_AND_ORGANIZATION ( #138, #164 ) ;
#27 = CARTESIAN_POINT ( 'NONE',  ( 1.466422162314116009E-13, 1.599999999999995648, 42.00000000000000000 ) ) ;
#28 = APPROVAL_PERSON_ORGANIZATION ( #207, #129, #44 ) ;
#29 = COORDINATED_UNIVERSAL_TIME_OFFSET ( 1, 0, .AHEAD. ) ;
#30 = PRODUCT_RELATED_PRODUCT_CATEGORY ( 'detail', '', ( #108 ) ) ;
#31 = AXIS2_PLACEMENT_3D ( 'NONE', #144, #109, #165 ) ;
#32 = DIRECTION ( 'NONE',  ( -4.277877074299981884E-31, -1.000000000000000000, -1.225232690407966567E-16 ) ) ;
#33 = PERSON_AND_ORGANIZATION ( #138, #164 ) ;
#34 = DIRECTION ( 'NONE',  ( 0.0000000000000000000, 1.000000000000000000, 0.0000000000000000000 ) ) ;
#35 = PLANE ( 'NONE',  #91 ) ;
#36 = DIRECTION ( 'NONE',  ( 3.491481338843133355E-15, -1.225232690407966814E-16, 1.000000000000000000 ) ) ;
#37 = ADVANCED_FACE ( 'NONE', ( #187, #130 ), #60, .T. ) ;
#38 = ADVANCED_FACE ( 'NONE', ( #184 ), #35, .T. ) ;
#39 = EDGE_LOOP ( 'NONE', ( #25 ) ) ;
#40 = APPROVAL_DATE_TIME ( #86, #136 ) ;
#41 = ORIENTED_EDGE ( 'NONE', *, *, #106, .F. ) ;
#42 = AXIS2_PLACEMENT_3D ( 'NONE', #131, #154, #56 ) ;
#43 = DIRECTION ( 'NONE',  ( 0.0000000000000000000, 1.000000000000000000, 0.0000000000000000000 ) ) ;
#44 = APPROVAL_ROLE ( '' ) ;
#45 = ADVANCED_FACE ( 'NONE', ( #152 ), #177, .F. ) ;
#46 = CARTESIAN_POINT ( 'NONE',  ( -8.551708932285095318E-31, 2.999535714154163263E-32, -2.449306784815472263E-16 ) ) ;
#47 = APPROVAL_STATUS ( 'not_yet_approved' ) ;
#48 = COORDINATED_UNIVERSAL_TIME_OFFSET ( 1, 0, .AHEAD. ) ;
#49 = DIRECTION ( 'NONE',  ( -4.275831445896959482E-31, -1.000000000000000000, -1.224646799147353454E-16 ) ) ;
#50 =( NAMED_UNIT ( * ) SI_UNIT ( $, .STERADIAN. ) SOLID_ANGLE_UNIT ( ) );
#51 = CC_DESIGN_PERSON_AND_ORGANIZATION_ASSIGNMENT ( #52, #53, ( #8 ) ) ;
#52 = PERSON_AND_ORGANIZATION ( #138, #164 ) ;
#53 = PERSON_AND_ORGANIZATION_ROLE ( 'design_supplier' ) ;
#54 = VERTEX_POINT ( 'NONE', #150 ) ;
#55 = CARTESIAN_POINT ( 'NONE',  ( -7.486284880024967640E-31, -4.482353671184099871E-32, -2.144157208213941431E-16 ) ) ;
#56 = DIRECTION ( 'NONE',  ( 0.0000000000000000000, 1.000000000000000000, 0.0000000000000000000 ) ) ;
#57 = CC_DESIGN_PERSON_AND_ORGANIZATION_ASSIGNMENT ( #148, #141, ( #8 ) ) ;
#58 = AXIS2_PLACEMENT_3D ( 'NONE', #211, #176, #203 ) ;
#59 = CALENDAR_DATE ( 2021, 8, 11 ) ;
#60 = CONICAL_SURFACE ( 'NONE', #85, 1.600000000000000977, 0.7853981633974512766 ) ;
#61 = PLANE ( 'NONE',  #73 ) ;
#62 = DIRECTION ( 'NONE',  ( 4.275831445896959482E-31, 1.000000000000000000, 1.224646799147353700E-16 ) ) ;
#63 = APPROVAL ( #127, 'UNSPECIFIED' ) ;
#64 = CARTESIAN_POINT ( 'NONE',  ( 1.466422162314116009E-13, 1.199807826129479518E-32, 42.00000000000000000 ) ) ;
#65 = APPROVAL_DATE_TIME ( #181, #63 ) ;
#66 = ADVANCED_FACE ( 'NONE', ( #110 ), #61, .F. ) ;
#67 = PERSON_AND_ORGANIZATION ( #138, #164 ) ;
#68 = PERSON_AND_ORGANIZATION ( #138, #164 ) ;
#69 = CC_DESIGN_PERSON_AND_ORGANIZATION_ASSIGNMENT ( #146, #80, ( #103 ) ) ;
#70 = ORIENTED_EDGE ( 'NONE', *, *, #2, .F. ) ;
#71 = ORIENTED_EDGE ( 'NONE', *, *, #6, .F. ) ;
#72 = EDGE_LOOP ( 'NONE', ( #70 ) ) ;
#73 = AXIS2_PLACEMENT_3D ( 'NONE', #46, #215, #49 ) ;
#74 = EDGE_LOOP ( 'NONE', ( #118 ) ) ;
#75 = VERTEX_POINT ( 'NONE', #23 ) ;
#76 = DIRECTION ( 'NONE',  ( 0.0000000000000000000, -1.000000000000000000, 0.0000000000000000000 ) ) ;
#77 = EDGE_CURVE ( 'NONE', #75, #75, #208, .T. ) ;
#78 = CARTESIAN_POINT ( 'NONE',  ( 1.396592535537253342E-14, -4.900930761631868242E-16, 4.000000000000000000 ) ) ;
#79 = CALENDAR_DATE ( 2021, 8, 11 ) ;
#80 = PERSON_AND_ORGANIZATION_ROLE ( 'classification_officer' ) ;
#81 = EDGE_CURVE ( 'NONE', #54, #54, #196, .T. ) ;
#82 = COORDINATED_UNIVERSAL_TIME_OFFSET ( 1, 0, .AHEAD. ) ;
#83 = CARTESIAN_POINT ( 'NONE',  ( 1.396592535537253342E-14, 1.499759782661853502E-32, 4.000000000000000000 ) ) ;
#84 = ADVANCED_FACE ( 'NONE', ( #160, #14 ), #140, .T. ) ;
#85 = AXIS2_PLACEMENT_3D ( 'NONE', #183, #173, #34 ) ;
#86 = DATE_AND_TIME ( #119, #192 ) ;
#87 = DIRECTION ( 'NONE',  ( 0.0000000000000000000, -1.000000000000000000, 0.0000000000000000000 ) ) ;
#88 = AXIS2_PLACEMENT_3D ( 'NONE', #64, #190, #92 ) ;
#89 = PERSON_AND_ORGANIZATION_ROLE ( 'creator' ) ;
#90 = CC_DESIGN_DATE_AND_TIME_ASSIGNMENT ( #4, #200, ( #194 ) ) ;
#91 = AXIS2_PLACEMENT_3D ( 'NONE', #83, #24, #201 ) ;
#92 = DIRECTION ( 'NONE',  ( 4.275831445896959482E-31, 1.000000000000000000, 1.224646799147353454E-16 ) ) ;
#93 = CLOSED_SHELL ( 'NONE', ( #38, #115, #66 ) ) ;
#94 = DATE_AND_TIME ( #128, #120 ) ;
#95 = PRODUCT_DEFINITION_SHAPE ( 'NONE', 'NONE',  #194 ) ;
#96 = ADVANCED_BREP_SHAPE_REPRESENTATION ( '960660', ( #186, #113, #31 ), #133 ) ;
#97 = CC_DESIGN_APPROVAL ( #136, ( #194 ) ) ;
#98 = AXIS2_PLACEMENT_3D ( 'NONE', #15, #219, #212 ) ;
#99 = EDGE_LOOP ( 'NONE', ( #149 ) ) ;
#100 = CIRCLE ( 'NONE', #42, 2.000000000000000888 ) ;
#101 = DIRECTION ( 'NONE',  ( 0.0000000000000000000, -1.000000000000000000, 0.0000000000000000000 ) ) ;
#102 = FACE_OUTER_BOUND ( 'NONE', #5, .T. ) ;
#103 = SECURITY_CLASSIFICATION ( '', '', #22 ) ;
#104 = DIRECTION ( 'NONE',  ( 0.0000000000000000000, -1.000000000000000000, 0.0000000000000000000 ) ) ;
#105 =( LENGTH_UNIT ( ) NAMED_UNIT ( * ) SI_UNIT ( .MILLI., .METRE. ) );
#106 = EDGE_CURVE ( 'NONE', #155, #155, #123, .T. ) ;
#107 = CARTESIAN_POINT ( 'NONE',  ( 1.452456236958743728E-13, 1.999999999999995781, 41.60000000000000853 ) ) ;
#108 = PRODUCT ( '960660', '960660', '', ( #221 ) ) ;
#109 = DIRECTION ( 'NONE',  ( 0.0000000000000000000, 0.0000000000000000000, 1.000000000000000000 ) ) ;
#110 = FACE_OUTER_BOUND ( 'NONE', #153, .T. ) ;
#111 = CONICAL_SURFACE ( 'NONE', #158, 1.999999999999997335, 0.5235987755982927094 ) ;
#112 = DATE_TIME_ROLE ( 'classification_date' ) ;
#113 = MANIFOLD_SOLID_BREP ( 'Corps-Déplacer/Copier1[2]', #93 ) ;
#114 = DIRECTION ( 'NONE',  ( 3.491481338843133355E-15, -1.225232690407966814E-16, 1.000000000000000000 ) ) ;
#115 = ADVANCED_FACE ( 'NONE', ( #134, #209 ), #189, .T. ) ;
#116 = AXIS2_PLACEMENT_3D ( 'NONE', #55, #36, #32 ) ;
#117 = EDGE_LOOP ( 'NONE', ( #135 ) ) ;
#118 = ORIENTED_EDGE ( 'NONE', *, *, #2, .T. ) ;
#119 = CALENDAR_DATE ( 2021, 8, 11 ) ;
#120 = LOCAL_TIME ( 13, 44, 18.00000000000000000, #48 ) ;
#121 = CARTESIAN_POINT ( 'NONE',  ( 1.466422162314116009E-13, -5.143516556418884900E-15, 42.00000000000000000 ) ) ;
#122 = LOCAL_TIME ( 13, 44, 18.00000000000000000, #220 ) ;
#123 = CIRCLE ( 'NONE', #7, 1.600000000000000977 ) ;
#124 = PERSON_AND_ORGANIZATION_ROLE ( 'design_owner' ) ;
#125 = CALENDAR_DATE ( 2021, 8, 11 ) ;
#126 = EDGE_LOOP ( 'NONE', ( #204 ) ) ;
#127 = APPROVAL_STATUS ( 'not_yet_approved' ) ;
#128 = CALENDAR_DATE ( 2021, 8, 11 ) ;
#129 = APPROVAL ( #47, 'UNSPECIFIED' ) ;
#130 = FACE_BOUND ( 'NONE', #99, .T. ) ;
#131 = CARTESIAN_POINT ( 'NONE',  ( 1.452456236958743728E-13, -5.094530684452991472E-15, 41.60000000000000853 ) ) ;
#132 = AXIS2_PLACEMENT_3D ( 'NONE', #78, #17, #76 ) ;
#133 =( GEOMETRIC_REPRESENTATION_CONTEXT ( 3 ) GLOBAL_UNCERTAINTY_ASSIGNED_CONTEXT ( ( #20 ) ) GLOBAL_UNIT_ASSIGNED_CONTEXT ( ( #105, #18, #50 ) ) REPRESENTATION_CONTEXT ( 'NONE', 'WORKASPACE' ) );
#134 = FACE_OUTER_BOUND ( 'NONE', #197, .T. ) ;
#135 = ORIENTED_EDGE ( 'NONE', *, *, #6, .T. ) ;
#136 = APPROVAL ( #137, 'UNSPECIFIED' ) ;
#137 = APPROVAL_STATUS ( 'not_yet_approved' ) ;
#138 = PERSON ( 'UNSPECIFIED', 'UNSPECIFIED', 'UNSPECIFIED', ('UNSPECIFIED'), ('UNSPECIFIED'), ('UNSPECIFIED') ) ;
#139 = VERTEX_POINT ( 'NONE', #16 ) ;
#140 = CYLINDRICAL_SURFACE ( 'NONE', #214, 1.999999999999997335 ) ;
#141 = PERSON_AND_ORGANIZATION_ROLE ( 'creator' ) ;
#142 = AXIS2_PLACEMENT_3D ( 'NONE', #202, #114, #101 ) ;
#143 = DIRECTION ( 'NONE',  ( -3.491481338843133355E-15, 1.224646799147353454E-16, -1.000000000000000000 ) ) ;
#144 = CARTESIAN_POINT ( 'NONE',  ( 0.0000000000000000000, 0.0000000000000000000, 0.0000000000000000000 ) ) ;
#145 = APPROVAL_PERSON_ORGANIZATION ( #33, #136, #210 ) ;
#146 = PERSON_AND_ORGANIZATION ( #138, #164 ) ;
#147 = ORIENTED_EDGE ( 'NONE', *, *, #77, .T. ) ;
#148 = PERSON_AND_ORGANIZATION ( #138, #164 ) ;
#149 = ORIENTED_EDGE ( 'NONE', *, *, #106, .T. ) ;
#150 = CARTESIAN_POINT ( 'NONE',  ( 1.396592535537253342E-14, -1.750000000000000222, 4.000000000000000000 ) ) ;
#151 = CIRCLE ( 'NONE', #142, 1.749999999999999778 ) ;
#152 = FACE_OUTER_BOUND ( 'NONE', #223, .T. ) ;
#153 = EDGE_LOOP ( 'NONE', ( #170 ) ) ;
#154 = DIRECTION ( 'NONE',  ( -3.491481338843133355E-15, 1.224646799147353454E-16, -1.000000000000000000 ) ) ;
#155 = VERTEX_POINT ( 'NONE', #27 ) ;
#156 = APPROVAL_PERSON_ORGANIZATION ( #67, #63, #182 ) ;
#157 = CARTESIAN_POINT ( 'NONE',  ( 1.547778112351126981E-14, -5.431472079352097990E-16, 4.433012701892221408 ) ) ;
#158 = AXIS2_PLACEMENT_3D ( 'NONE', #157, #10, #104 ) ;
#159 = VERTEX_POINT ( 'NONE', #13 ) ;
#160 = FACE_OUTER_BOUND ( 'NONE', #74, .T. ) ;
#161 = PLANE ( 'NONE',  #88 ) ;
#162 = APPROVAL_DATE_TIME ( #94, #129 ) ;
#163 = APPLICATION_PROTOCOL_DEFINITION ( 'international standard', 'config_control_design', 1994, #205 ) ;
#164 = ORGANIZATION ( 'UNSPECIFIED', 'UNSPECIFIED', '' ) ;
#165 = DIRECTION ( 'NONE',  ( 1.000000000000000000, 0.0000000000000000000, 0.0000000000000000000 ) ) ;
#166 = APPLICATION_PROTOCOL_DEFINITION ( 'international standard', 'config_control_design', 1994, #19 ) ;
#167 = EDGE_LOOP ( 'NONE', ( #71 ) ) ;
#168 = CC_DESIGN_APPROVAL ( #63, ( #103 ) ) ;
#169 = CARTESIAN_POINT ( 'NONE',  ( 1.547778112351126981E-14, -5.431472079352097990E-16, 4.433012701892221408 ) ) ;
#170 = ORIENTED_EDGE ( 'NONE', *, *, #77, .F. ) ;
#171 = ADVANCED_FACE ( 'NONE', ( #188, #172 ), #111, .T. ) ;
#172 = FACE_OUTER_BOUND ( 'NONE', #167, .T. ) ;
#173 = DIRECTION ( 'NONE',  ( -3.491481338843133355E-15, 1.224646799147353454E-16, -1.000000000000000000 ) ) ;
#174 = AXIS2_PLACEMENT_3D ( 'NONE', #169, #9, #87 ) ;
#175 = LOCAL_TIME ( 13, 44, 18.00000000000000000, #82 ) ;
#176 = DIRECTION ( 'NONE',  ( 3.491481338843133355E-15, -1.225232690407966814E-16, 1.000000000000000000 ) ) ;
#177 = PLANE ( 'NONE',  #98 ) ;
#178 = DESIGN_CONTEXT ( 'detailed design', #19, 'design' ) ;
#179 = ADVANCED_FACE ( 'NONE', ( #102 ), #161, .F. ) ;
#180 = DATE_AND_TIME ( #125, #122 ) ;
#181 = DATE_AND_TIME ( #79, #175 ) ;
#182 = APPROVAL_ROLE ( '' ) ;
#183 = CARTESIAN_POINT ( 'NONE',  ( 1.466422162314116009E-13, -5.143516556418884900E-15, 42.00000000000000000 ) ) ;
#184 = FACE_OUTER_BOUND ( 'NONE', #126, .T. ) ;
#185 = ORIENTED_EDGE ( 'NONE', *, *, #81, .T. ) ;
#186 = MANIFOLD_SOLID_BREP ( 'Corps-Déplacer/Copier1[1]', #12 ) ;
#187 = FACE_OUTER_BOUND ( 'NONE', #72, .T. ) ;
#188 = FACE_BOUND ( 'NONE', #198, .T. ) ;
#189 = CYLINDRICAL_SURFACE ( 'NONE', #58, 1.749999999999999778 ) ;
#190 = DIRECTION ( 'NONE',  ( -3.491481338843133355E-15, 1.224646799147353454E-16, -1.000000000000000000 ) ) ;
#191 = CIRCLE ( 'NONE', #174, 1.999999999999997335 ) ;
#192 = LOCAL_TIME ( 13, 44, 18.00000000000000000, #29 ) ;
#193 = DIRECTION ( 'NONE',  ( -3.491481338843133355E-15, 1.224646799147353454E-16, -1.000000000000000000 ) ) ;
#194 = PRODUCT_DEFINITION ( 'UNKNOWN', '', #8, #178 ) ;
#195 = VERTEX_POINT ( 'NONE', #107 ) ;
#196 = CIRCLE ( 'NONE', #132, 1.749999999999999778 ) ;
#197 = EDGE_LOOP ( 'NONE', ( #147 ) ) ;
#198 = EDGE_LOOP ( 'NONE', ( #185 ) ) ;
#199 = CC_DESIGN_PERSON_AND_ORGANIZATION_ASSIGNMENT ( #68, #124, ( #108 ) ) ;
#200 = DATE_TIME_ROLE ( 'creation_date' ) ;
#201 = DIRECTION ( 'NONE',  ( -4.275831445896959482E-31, -1.000000000000000000, -1.224646799147353454E-16 ) ) ;
#202 = CARTESIAN_POINT ( 'NONE',  ( 1.396592535537253342E-14, -4.900930761631868242E-16, 4.000000000000000000 ) ) ;
#203 = DIRECTION ( 'NONE',  ( -4.277877074299981008E-31, -1.000000000000000000, -1.225232690407966567E-16 ) ) ;
#204 = ORIENTED_EDGE ( 'NONE', *, *, #21, .T. ) ;
#205 = APPLICATION_CONTEXT ( 'configuration controlled 3d designs of mechanical parts and assemblies' ) ;
#206 = COORDINATED_UNIVERSAL_TIME_OFFSET ( 1, 0, .AHEAD. ) ;
#207 = PERSON_AND_ORGANIZATION ( #138, #164 ) ;
#208 = CIRCLE ( 'NONE', #116, 1.749999999999999778 ) ;
#209 = FACE_OUTER_BOUND ( 'NONE', #39, .T. ) ;
#210 = APPROVAL_ROLE ( '' ) ;
#211 = CARTESIAN_POINT ( 'NONE',  ( -2.025941305359930978E-30, 0.0000000000000000000, -5.802526517387047816E-16 ) ) ;
#212 = DIRECTION ( 'NONE',  ( -4.275831445896959482E-31, -1.000000000000000000, -1.224646799147353454E-16 ) ) ;
#213 = CARTESIAN_POINT ( 'NONE',  ( 0.0000000000000000000, 0.0000000000000000000, 0.0000000000000000000 ) ) ;
#214 = AXIS2_PLACEMENT_3D ( 'NONE', #213, #143, #62 ) ;
#215 = DIRECTION ( 'NONE',  ( 3.491481338843133355E-15, -1.224646799147353454E-16, 1.000000000000000000 ) ) ;
#216 = CC_DESIGN_APPROVAL ( #129, ( #8 ) ) ;
#217 = CC_DESIGN_DATE_AND_TIME_ASSIGNMENT ( #180, #112, ( #103 ) ) ;
#218 = LOCAL_TIME ( 13, 44, 18.00000000000000000, #206 ) ;
#219 = DIRECTION ( 'NONE',  ( 3.491481338843133355E-15, -1.224646799147353454E-16, 1.000000000000000000 ) ) ;
#220 = COORDINATED_UNIVERSAL_TIME_OFFSET ( 1, 0, .AHEAD. ) ;
#221 = MECHANICAL_CONTEXT ( 'NONE', #205, 'mechanical' ) ;
#222 = SHAPE_DEFINITION_REPRESENTATION ( #95, #96 ) ;
#223 = EDGE_LOOP ( 'NONE', ( #3 ) ) ;
ENDSEC;
END-ISO-10303-21;
