ISO-10303-21;
HEADER;
FILE_DESCRIPTION (( 'STEP AP203' ),
    '1' );
FILE_NAME ('960659.step',
    '2021-11-08T12:44:17',
    ( '' ),
    ( '' ),
    'SwSTEP 2.0',
    'SolidWorks 2019',
    '' );
FILE_SCHEMA (( 'CONFIG_CONTROL_DESIGN' ));
ENDSEC;

DATA;
#1 = CALENDAR_DATE ( 2021, 8, 11 ) ;
#2 = PERSON_AND_ORGANIZATION_ROLE ( 'creator' ) ;
#3 = APPROVAL_STATUS ( 'not_yet_approved' ) ;
#4 = LOCAL_TIME ( 13, 44, 17.00000000000000000, #178 ) ;
#5 = DIRECTION ( 'NONE',  ( 0.0000000000000000000, -1.000000000000000000, 0.0000000000000000000 ) ) ;
#6 = CC_DESIGN_DATE_AND_TIME_ASSIGNMENT ( #192, #34, ( #132 ) ) ;
#7 = DIRECTION ( 'NONE',  ( 3.491481338843133355E-15, -1.225232690407966814E-16, 1.000000000000000000 ) ) ;
#8 =( LENGTH_UNIT ( ) NAMED_UNIT ( * ) SI_UNIT ( .MILLI., .METRE. ) );
#9 = DESIGN_CONTEXT ( 'detailed design', #82, 'design' ) ;
#10 = SHAPE_DEFINITION_REPRESENTATION ( #133, #67 ) ;
#11 = AXIS2_PLACEMENT_3D ( 'NONE', #203, #44, #125 ) ;
#12 = CARTESIAN_POINT ( 'NONE',  ( 1.466422162314116009E-13, -5.143516556418884900E-15, 42.00000000000000000 ) ) ;
#13 = EDGE_LOOP ( 'NONE', ( #41 ) ) ;
#14 = PLANE ( 'NONE',  #22 ) ;
#15 = COORDINATED_UNIVERSAL_TIME_OFFSET ( 1, 0, .AHEAD. ) ;
#16 = AXIS2_PLACEMENT_3D ( 'NONE', #59, #7, #99 ) ;
#17 = CLOSED_SHELL ( 'NONE', ( #172, #94, #108 ) ) ;
#18 = APPROVAL_DATE_TIME ( #208, #193 ) ;
#19 = CC_DESIGN_PERSON_AND_ORGANIZATION_ASSIGNMENT ( #164, #109, ( #74 ) ) ;
#20 = VERTEX_POINT ( 'NONE', #78 ) ;
#21 = EDGE_LOOP ( 'NONE', ( #169 ) ) ;
#22 = AXIS2_PLACEMENT_3D ( 'NONE', #158, #63, #103 ) ;
#23 =( NAMED_UNIT ( * ) SI_UNIT ( $, .STERADIAN. ) SOLID_ANGLE_UNIT ( ) );
#24 = ADVANCED_FACE ( 'NONE', ( #201, #62 ), #206, .T. ) ;
#25 = FACE_OUTER_BOUND ( 'NONE', #219, .T. ) ;
#26 = CC_DESIGN_PERSON_AND_ORGANIZATION_ASSIGNMENT ( #68, #204, ( #196 ) ) ;
#27 = DIRECTION ( 'NONE',  ( -4.275831445896959482E-31, -1.000000000000000000, -1.224646799147353454E-16 ) ) ;
#28 = APPROVAL ( #43, 'UNSPECIFIED' ) ;
#29 = MANIFOLD_SOLID_BREP ( 'Corps-Déplacer/Copier1[2]', #17 ) ;
#30 = DIRECTION ( 'NONE',  ( 0.0000000000000000000, -1.000000000000000000, 0.0000000000000000000 ) ) ;
#31 = APPROVAL_PERSON_ORGANIZATION ( #75, #91, #144 ) ;
#32 = PLANE ( 'NONE',  #221 ) ;
#33 = COORDINATED_UNIVERSAL_TIME_OFFSET ( 1, 0, .AHEAD. ) ;
#34 = DATE_TIME_ROLE ( 'creation_date' ) ;
#35 = LOCAL_TIME ( 13, 44, 17.00000000000000000, #33 ) ;
#36 = AXIS2_PLACEMENT_3D ( 'NONE', #156, #171, #48 ) ;
#37 = PERSON_AND_ORGANIZATION ( #153, #113 ) ;
#38 = PERSON_AND_ORGANIZATION_ROLE ( 'creator' ) ;
#39 = DIRECTION ( 'NONE',  ( -3.491481338843133355E-15, 1.224646799147353454E-16, -1.000000000000000000 ) ) ;
#40 = LOCAL_TIME ( 13, 44, 17.00000000000000000, #15 ) ;
#41 = ORIENTED_EDGE ( 'NONE', *, *, #61, .F. ) ;
#42 = PLANE ( 'NONE',  #64 ) ;
#43 = APPROVAL_STATUS ( 'not_yet_approved' ) ;
#44 = DIRECTION ( 'NONE',  ( 3.491481338843133355E-15, -1.225232690407966814E-16, 1.000000000000000000 ) ) ;
#45 = CC_DESIGN_PERSON_AND_ORGANIZATION_ASSIGNMENT ( #37, #38, ( #132 ) ) ;
#46 = DIRECTION ( 'NONE',  ( 0.0000000000000000000, -1.000000000000000000, 0.0000000000000000000 ) ) ;
#47 = FACE_OUTER_BOUND ( 'NONE', #141, .T. ) ;
#48 = DIRECTION ( 'NONE',  ( -4.277877074299981008E-31, -1.000000000000000000, -1.225232690407967060E-16 ) ) ;
#49 = SECURITY_CLASSIFICATION_LEVEL ( 'unclassified' ) ;
#50 = DIRECTION ( 'NONE',  ( -3.491481338843133355E-15, 1.224646799147353454E-16, -1.000000000000000000 ) ) ;
#51 = CARTESIAN_POINT ( 'NONE',  ( 1.524389622222845214E-14, -5.349397051868348276E-16, 4.366025403784446368 ) ) ;
#52 = EDGE_LOOP ( 'NONE', ( #96 ) ) ;
#53 = CC_DESIGN_PERSON_AND_ORGANIZATION_ASSIGNMENT ( #126, #191, ( #162 ) ) ;
#54 = EDGE_LOOP ( 'NONE', ( #215 ) ) ;
#55 = CARTESIAN_POINT ( 'NONE',  ( 1.466422162314116009E-13, 1.599999999999995648, 42.00000000000000000 ) ) ;
#56 = ORIENTED_EDGE ( 'NONE', *, *, #87, .T. ) ;
#57 = APPROVAL_DATE_TIME ( #182, #28 ) ;
#58 = EDGE_CURVE ( 'NONE', #154, #154, #105, .T. ) ;
#59 = CARTESIAN_POINT ( 'NONE',  ( -6.416815611449972388E-31, -4.857652457595186003E-32, -1.837849035611949974E-16 ) ) ;
#60 = CC_DESIGN_APPROVAL ( #193, ( #196 ) ) ;
#61 = EDGE_CURVE ( 'NONE', #134, #134, #79, .T. ) ;
#62 = FACE_BOUND ( 'NONE', #101, .T. ) ;
#63 = DIRECTION ( 'NONE',  ( 3.491481338843133355E-15, -1.224646799147353454E-16, 1.000000000000000000 ) ) ;
#64 = AXIS2_PLACEMENT_3D ( 'NONE', #147, #130, #115 ) ;
#65 = AXIS2_PLACEMENT_3D ( 'NONE', #121, #184, #30 ) ;
#66 = ORIENTED_EDGE ( 'NONE', *, *, #61, .T. ) ;
#67 = ADVANCED_BREP_SHAPE_REPRESENTATION ( '960659', ( #119, #29, #76 ), #69 ) ;
#68 = PERSON_AND_ORGANIZATION ( #153, #113 ) ;
#69 =( GEOMETRIC_REPRESENTATION_CONTEXT ( 3 ) GLOBAL_UNCERTAINTY_ASSIGNED_CONTEXT ( ( #183 ) ) GLOBAL_UNIT_ASSIGNED_CONTEXT ( ( #8, #135, #23 ) ) REPRESENTATION_CONTEXT ( 'NONE', 'WORKASPACE' ) );
#70 = DATE_AND_TIME ( #175, #35 ) ;
#71 = CLOSED_SHELL ( 'NONE', ( #145, #24, #148, #163, #102 ) ) ;
#72 = PERSON_AND_ORGANIZATION ( #153, #113 ) ;
#73 = CC_DESIGN_PERSON_AND_ORGANIZATION_ASSIGNMENT ( #93, #2, ( #196 ) ) ;
#74 = PRODUCT ( '960659', '960659', '', ( #194 ) ) ;
#75 = PERSON_AND_ORGANIZATION ( #153, #113 ) ;
#76 = AXIS2_PLACEMENT_3D ( 'NONE', #161, #159, #174 ) ;
#77 = PRODUCT_RELATED_PRODUCT_CATEGORY ( 'detail', '', ( #74 ) ) ;
#78 = CARTESIAN_POINT ( 'NONE',  ( -1.283363122289994302E-30, -1.499999999999999556, -3.675698071223899949E-16 ) ) ;
#79 = CIRCLE ( 'NONE', #11, 1.999999999999997335 ) ;
#80 = CIRCLE ( 'NONE', #220, 2.000000000000000888 ) ;
#81 = CARTESIAN_POINT ( 'NONE',  ( 1.466422162314116009E-13, -5.143516556418884900E-15, 42.00000000000000000 ) ) ;
#82 = APPLICATION_CONTEXT ( 'configuration controlled 3d designs of mechanical parts and assemblies' ) ;
#83 = DIRECTION ( 'NONE',  ( -3.491481338843133355E-15, 1.224646799147353454E-16, -1.000000000000000000 ) ) ;
#84 = FACE_OUTER_BOUND ( 'NONE', #213, .T. ) ;
#85 = DIRECTION ( 'NONE',  ( 3.491481338843133355E-15, -1.224646799147353454E-16, 1.000000000000000000 ) ) ;
#86 = AXIS2_PLACEMENT_3D ( 'NONE', #202, #188, #46 ) ;
#87 = EDGE_CURVE ( 'NONE', #214, #214, #118, .T. ) ;
#88 = FACE_OUTER_BOUND ( 'NONE', #52, .T. ) ;
#89 = CALENDAR_DATE ( 2021, 8, 11 ) ;
#90 = FACE_OUTER_BOUND ( 'NONE', #21, .T. ) ;
#91 = APPROVAL ( #210, 'UNSPECIFIED' ) ;
#92 = CARTESIAN_POINT ( 'NONE',  ( 1.466422162314116009E-13, 1.199807826129479518E-32, 42.00000000000000000 ) ) ;
#93 = PERSON_AND_ORGANIZATION ( #153, #113 ) ;
#94 = ADVANCED_FACE ( 'NONE', ( #88, #47 ), #123, .T. ) ;
#95 = DIRECTION ( 'NONE',  ( 3.491481338843133355E-15, -1.225232690407966814E-16, 1.000000000000000000 ) ) ;
#96 = ORIENTED_EDGE ( 'NONE', *, *, #167, .T. ) ;
#97 = APPROVAL_PERSON_ORGANIZATION ( #177, #193, #146 ) ;
#98 = AXIS2_PLACEMENT_3D ( 'NONE', #187, #85, #27 ) ;
#99 = DIRECTION ( 'NONE',  ( -4.277877074299981884E-31, -1.000000000000000000, -1.225232690407967060E-16 ) ) ;
#100 = CYLINDRICAL_SURFACE ( 'NONE', #176, 1.999999999999997335 ) ;
#101 = EDGE_LOOP ( 'NONE', ( #151 ) ) ;
#102 = ADVANCED_FACE ( 'NONE', ( #25 ), #124, .F. ) ;
#103 = DIRECTION ( 'NONE',  ( -4.275831445896959482E-31, -1.000000000000000000, -1.224646799147353454E-16 ) ) ;
#104 = AXIS2_PLACEMENT_3D ( 'NONE', #51, #95, #5 ) ;
#105 = CIRCLE ( 'NONE', #86, 1.499999999999999556 ) ;
#106 = ORIENTED_EDGE ( 'NONE', *, *, #58, .F. ) ;
#107 = FACE_OUTER_BOUND ( 'NONE', #186, .T. ) ;
#108 = ADVANCED_FACE ( 'NONE', ( #84 ), #14, .F. ) ;
#109 = PERSON_AND_ORGANIZATION_ROLE ( 'design_owner' ) ;
#110 = FACE_OUTER_BOUND ( 'NONE', #13, .T. ) ;
#111 = APPLICATION_PROTOCOL_DEFINITION ( 'international standard', 'config_control_design', 1994, #82 ) ;
#112 = FACE_BOUND ( 'NONE', #117, .T. ) ;
#113 = ORGANIZATION ( 'UNSPECIFIED', 'UNSPECIFIED', '' ) ;
#114 = AXIS2_PLACEMENT_3D ( 'NONE', #12, #218, #140 ) ;
#115 = DIRECTION ( 'NONE',  ( -4.275831445896959482E-31, -1.000000000000000000, -1.224646799147353454E-16 ) ) ;
#116 = EDGE_LOOP ( 'NONE', ( #181 ) ) ;
#117 = EDGE_LOOP ( 'NONE', ( #56 ) ) ;
#118 = CIRCLE ( 'NONE', #65, 1.499999999999999556 ) ;
#119 = MANIFOLD_SOLID_BREP ( 'Corps-Déplacer/Copier1[1]', #71 ) ;
#120 = CARTESIAN_POINT ( 'NONE',  ( 1.524389622222845214E-14, -1.999999999999997780, 4.366025403784446368 ) ) ;
#121 = CARTESIAN_POINT ( 'NONE',  ( 1.222018468595096517E-14, -4.288314416427883849E-16, 3.499999999999999556 ) ) ;
#122 = APPROVAL_ROLE ( '' ) ;
#123 = CYLINDRICAL_SURFACE ( 'NONE', #36, 1.499999999999999556 ) ;
#124 = PLANE ( 'NONE',  #98 ) ;
#125 = DIRECTION ( 'NONE',  ( 0.0000000000000000000, -1.000000000000000000, 0.0000000000000000000 ) ) ;
#126 = PERSON_AND_ORGANIZATION ( #153, #113 ) ;
#127 = APPROVAL_DATE_TIME ( #209, #91 ) ;
#128 = COORDINATED_UNIVERSAL_TIME_OFFSET ( 1, 0, .AHEAD. ) ;
#129 = DIRECTION ( 'NONE',  ( 4.275831445896959482E-31, 1.000000000000000000, 1.224646799147353454E-16 ) ) ;
#130 = DIRECTION ( 'NONE',  ( 3.491481338843133355E-15, -1.224646799147353454E-16, 1.000000000000000000 ) ) ;
#131 = LOCAL_TIME ( 13, 44, 17.00000000000000000, #128 ) ;
#132 = PRODUCT_DEFINITION ( 'UNKNOWN', '', #196, #9 ) ;
#133 = PRODUCT_DEFINITION_SHAPE ( 'NONE', 'NONE',  #132 ) ;
#134 = VERTEX_POINT ( 'NONE', #120 ) ;
#135 =( NAMED_UNIT ( * ) PLANE_ANGLE_UNIT ( ) SI_UNIT ( $, .RADIAN. ) );
#136 = ORIENTED_EDGE ( 'NONE', *, *, #160, .T. ) ;
#137 = FACE_OUTER_BOUND ( 'NONE', #116, .T. ) ;
#138 = CARTESIAN_POINT ( 'NONE',  ( 0.0000000000000000000, 0.0000000000000000000, 0.0000000000000000000 ) ) ;
#139 = CIRCLE ( 'NONE', #179, 1.600000000000000977 ) ;
#140 = DIRECTION ( 'NONE',  ( 0.0000000000000000000, 1.000000000000000000, 0.0000000000000000000 ) ) ;
#141 = EDGE_LOOP ( 'NONE', ( #106 ) ) ;
#142 = DATE_TIME_ROLE ( 'classification_date' ) ;
#143 = CC_DESIGN_DATE_AND_TIME_ASSIGNMENT ( #70, #142, ( #162 ) ) ;
#144 = APPROVAL_ROLE ( '' ) ;
#145 = ADVANCED_FACE ( 'NONE', ( #190, #107 ), #100, .T. ) ;
#146 = APPROVAL_ROLE ( '' ) ;
#147 = CARTESIAN_POINT ( 'NONE',  ( 1.222018468595096832E-14, 1.499759782661853502E-32, 3.500000000000000444 ) ) ;
#148 = ADVANCED_FACE ( 'NONE', ( #90 ), #32, .F. ) ;
#149 = VERTEX_POINT ( 'NONE', #55 ) ;
#150 = EDGE_LOOP ( 'NONE', ( #136 ) ) ;
#151 = ORIENTED_EDGE ( 'NONE', *, *, #207, .T. ) ;
#152 = APPROVAL_PERSON_ORGANIZATION ( #72, #28, #122 ) ;
#153 = PERSON ( 'UNSPECIFIED', 'UNSPECIFIED', 'UNSPECIFIED', ('UNSPECIFIED'), ('UNSPECIFIED'), ('UNSPECIFIED') ) ;
#154 = VERTEX_POINT ( 'NONE', #198 ) ;
#155 = ORIENTED_EDGE ( 'NONE', *, *, #87, .F. ) ;
#156 = CARTESIAN_POINT ( 'NONE',  ( -2.025941305359930978E-30, 0.0000000000000000000, -5.802526517387047816E-16 ) ) ;
#157 = APPLICATION_PROTOCOL_DEFINITION ( 'international standard', 'config_control_design', 1994, #195 ) ;
#158 = CARTESIAN_POINT ( 'NONE',  ( -8.551708932285095318E-31, 2.999535714154163263E-32, -2.449306784815472263E-16 ) ) ;
#159 = DIRECTION ( 'NONE',  ( 0.0000000000000000000, 0.0000000000000000000, 1.000000000000000000 ) ) ;
#160 = EDGE_CURVE ( 'NONE', #180, #180, #80, .T. ) ;
#161 = CARTESIAN_POINT ( 'NONE',  ( 0.0000000000000000000, 0.0000000000000000000, 0.0000000000000000000 ) ) ;
#162 = SECURITY_CLASSIFICATION ( '', '', #49 ) ;
#163 = ADVANCED_FACE ( 'NONE', ( #112, #110 ), #165, .T. ) ;
#164 = PERSON_AND_ORGANIZATION ( #153, #113 ) ;
#165 = CONICAL_SURFACE ( 'NONE', #104, 1.999999999999997335, 0.5235987755982927094 ) ;
#166 = CARTESIAN_POINT ( 'NONE',  ( 1.222018468595096517E-14, -1.500000000000000000, 3.499999999999999556 ) ) ;
#167 = EDGE_CURVE ( 'NONE', #20, #20, #205, .T. ) ;
#168 = DIRECTION ( 'NONE',  ( 4.275831445896959482E-31, 1.000000000000000000, 1.224646799147353700E-16 ) ) ;
#169 = ORIENTED_EDGE ( 'NONE', *, *, #207, .F. ) ;
#170 = LOCAL_TIME ( 13, 44, 17.00000000000000000, #216 ) ;
#171 = DIRECTION ( 'NONE',  ( 3.491481338843133355E-15, -1.225232690407966814E-16, 1.000000000000000000 ) ) ;
#172 = ADVANCED_FACE ( 'NONE', ( #137 ), #42, .T. ) ;
#173 = DIRECTION ( 'NONE',  ( -3.491481338843133355E-15, 1.224646799147353454E-16, -1.000000000000000000 ) ) ;
#174 = DIRECTION ( 'NONE',  ( 1.000000000000000000, 0.0000000000000000000, 0.0000000000000000000 ) ) ;
#175 = CALENDAR_DATE ( 2021, 8, 11 ) ;
#176 = AXIS2_PLACEMENT_3D ( 'NONE', #138, #173, #168 ) ;
#177 = PERSON_AND_ORGANIZATION ( #153, #113 ) ;
#178 = COORDINATED_UNIVERSAL_TIME_OFFSET ( 1, 0, .AHEAD. ) ;
#179 = AXIS2_PLACEMENT_3D ( 'NONE', #81, #83, #212 ) ;
#180 = VERTEX_POINT ( 'NONE', #199 ) ;
#181 = ORIENTED_EDGE ( 'NONE', *, *, #58, .T. ) ;
#182 = DATE_AND_TIME ( #217, #170 ) ;
#183 = UNCERTAINTY_MEASURE_WITH_UNIT (LENGTH_MEASURE( 1.000000000000000082E-05 ), #8, 'distance_accuracy_value', 'NONE');
#184 = DIRECTION ( 'NONE',  ( 3.491481338843133355E-15, -1.225232690407966814E-16, 1.000000000000000000 ) ) ;
#185 = CC_DESIGN_APPROVAL ( #28, ( #162 ) ) ;
#186 = EDGE_LOOP ( 'NONE', ( #66 ) ) ;
#187 = CARTESIAN_POINT ( 'NONE',  ( 1.222018468595096832E-14, 1.499759782661853502E-32, 3.500000000000000444 ) ) ;
#188 = DIRECTION ( 'NONE',  ( 3.491481338843133355E-15, -1.225232690407966814E-16, 1.000000000000000000 ) ) ;
#189 = CC_DESIGN_APPROVAL ( #91, ( #132 ) ) ;
#190 = FACE_OUTER_BOUND ( 'NONE', #150, .T. ) ;
#191 = PERSON_AND_ORGANIZATION_ROLE ( 'classification_officer' ) ;
#192 = DATE_AND_TIME ( #89, #4 ) ;
#193 = APPROVAL ( #3, 'UNSPECIFIED' ) ;
#194 = MECHANICAL_CONTEXT ( 'NONE', #195, 'mechanical' ) ;
#195 = APPLICATION_CONTEXT ( 'configuration controlled 3d designs of mechanical parts and assemblies' ) ;
#196 = PRODUCT_DEFINITION_FORMATION_WITH_SPECIFIED_SOURCE ( 'ANY', '', #74, .NOT_KNOWN. ) ;
#197 = CARTESIAN_POINT ( 'NONE',  ( 1.452456236958743728E-13, -5.094530684452991472E-15, 41.60000000000000853 ) ) ;
#198 = CARTESIAN_POINT ( 'NONE',  ( 1.222018468595096517E-14, -1.500000000000000000, 3.499999999999999556 ) ) ;
#199 = CARTESIAN_POINT ( 'NONE',  ( 1.452456236958743728E-13, 1.999999999999995781, 41.60000000000000853 ) ) ;
#200 = CC_DESIGN_SECURITY_CLASSIFICATION ( #162, ( #196 ) ) ;
#201 = FACE_OUTER_BOUND ( 'NONE', #54, .T. ) ;
#202 = CARTESIAN_POINT ( 'NONE',  ( 1.222018468595096517E-14, -4.288314416427883849E-16, 3.499999999999999556 ) ) ;
#203 = CARTESIAN_POINT ( 'NONE',  ( 1.524389622222845214E-14, -5.349397051868348276E-16, 4.366025403784446368 ) ) ;
#204 = PERSON_AND_ORGANIZATION_ROLE ( 'design_supplier' ) ;
#205 = CIRCLE ( 'NONE', #16, 1.499999999999999556 ) ;
#206 = CONICAL_SURFACE ( 'NONE', #114, 1.600000000000000977, 0.7853981633974512766 ) ;
#207 = EDGE_CURVE ( 'NONE', #149, #149, #139, .T. ) ;
#208 = DATE_AND_TIME ( #223, #40 ) ;
#209 = DATE_AND_TIME ( #1, #131 ) ;
#210 = APPROVAL_STATUS ( 'not_yet_approved' ) ;
#211 = DIRECTION ( 'NONE',  ( 0.0000000000000000000, 1.000000000000000000, 0.0000000000000000000 ) ) ;
#212 = DIRECTION ( 'NONE',  ( 0.0000000000000000000, 1.000000000000000000, 0.0000000000000000000 ) ) ;
#213 = EDGE_LOOP ( 'NONE', ( #222 ) ) ;
#214 = VERTEX_POINT ( 'NONE', #166 ) ;
#215 = ORIENTED_EDGE ( 'NONE', *, *, #160, .F. ) ;
#216 = COORDINATED_UNIVERSAL_TIME_OFFSET ( 1, 0, .AHEAD. ) ;
#217 = CALENDAR_DATE ( 2021, 8, 11 ) ;
#218 = DIRECTION ( 'NONE',  ( -3.491481338843133355E-15, 1.224646799147353454E-16, -1.000000000000000000 ) ) ;
#219 = EDGE_LOOP ( 'NONE', ( #155 ) ) ;
#220 = AXIS2_PLACEMENT_3D ( 'NONE', #197, #39, #211 ) ;
#221 = AXIS2_PLACEMENT_3D ( 'NONE', #92, #50, #129 ) ;
#222 = ORIENTED_EDGE ( 'NONE', *, *, #167, .F. ) ;
#223 = CALENDAR_DATE ( 2021, 8, 11 ) ;
ENDSEC;
END-ISO-10303-21;
