ISO-10303-21;
HEADER;
FILE_DESCRIPTION (( 'STEP AP203' ),
    '1' );
FILE_NAME ('960658.step',
    '2021-11-08T12:44:17',
    ( '' ),
    ( '' ),
    'SwSTEP 2.0',
    'SolidWorks 2019',
    '' );
FILE_SCHEMA (( 'CONFIG_CONTROL_DESIGN' ));
ENDSEC;

DATA;
#1 = CLOSED_SHELL ( 'NONE', ( #149, #52, #131, #174, #208 ) ) ;
#2 = DIRECTION ( 'NONE',  ( 0.0000000000000000000, 1.000000000000000000, 0.0000000000000000000 ) ) ;
#3 = CARTESIAN_POINT ( 'NONE',  ( 1.047444401652939533E-14, -1.249999999999999778, 2.999999999999998668 ) ) ;
#4 = DIRECTION ( 'NONE',  ( 0.0000000000000000000, -1.000000000000000000, 0.0000000000000000000 ) ) ;
#5 = AXIS2_PLACEMENT_3D ( 'NONE', #217, #182, #4 ) ;
#6 = LOCAL_TIME ( 13, 44, 17.00000000000000000, #169 ) ;
#7 = FACE_OUTER_BOUND ( 'NONE', #91, .T. ) ;
#8 = APPLICATION_CONTEXT ( 'configuration controlled 3d designs of mechanical parts and assemblies' ) ;
#9 = PERSON_AND_ORGANIZATION_ROLE ( 'creator' ) ;
#10 = ORIENTED_EDGE ( 'NONE', *, *, #34, .T. ) ;
#11 = CYLINDRICAL_SURFACE ( 'NONE', #166, 1.999999999999996669 ) ;
#12 = PERSON_AND_ORGANIZATION_ROLE ( 'design_supplier' ) ;
#13 = CC_DESIGN_PERSON_AND_ORGANIZATION_ASSIGNMENT ( #165, #9, ( #193 ) ) ;
#14 = CALENDAR_DATE ( 2021, 8, 11 ) ;
#15 = CALENDAR_DATE ( 2021, 8, 11 ) ;
#16 = AXIS2_PLACEMENT_3D ( 'NONE', #76, #214, #58 ) ;
#17 = AXIS2_PLACEMENT_3D ( 'NONE', #119, #190, #144 ) ;
#18 = DIRECTION ( 'NONE',  ( -3.491481338843133355E-15, 1.224646799147353207E-16, -1.000000000000000000 ) ) ;
#19 = FACE_BOUND ( 'NONE', #89, .T. ) ;
#20 = APPROVAL_DATE_TIME ( #92, #87 ) ;
#21 = DIRECTION ( 'NONE',  ( 3.491481338843133355E-15, -1.225232690407966814E-16, 1.000000000000000000 ) ) ;
#22 = FACE_OUTER_BOUND ( 'NONE', #93, .T. ) ;
#23 = CC_DESIGN_APPROVAL ( #66, ( #49 ) ) ;
#24 = PERSON_AND_ORGANIZATION ( #222, #204 ) ;
#25 = CC_DESIGN_PERSON_AND_ORGANIZATION_ASSIGNMENT ( #82, #134, ( #49 ) ) ;
#26 = ORIENTED_EDGE ( 'NONE', *, *, #104, .T. ) ;
#27 = CIRCLE ( 'NONE', #17, 1.999999999999996669 ) ;
#28 = ORIENTED_EDGE ( 'NONE', *, *, #69, .T. ) ;
#29 = PERSON_AND_ORGANIZATION ( #222, #204 ) ;
#30 = CIRCLE ( 'NONE', #189, 1.599999999999998312 ) ;
#31 = CIRCLE ( 'NONE', #133, 1.249999999999999334 ) ;
#32 = UNCERTAINTY_MEASURE_WITH_UNIT (LENGTH_MEASURE( 1.000000000000000082E-05 ), #192, 'distance_accuracy_value', 'NONE');
#33 = ADVANCED_FACE ( 'NONE', ( #164, #7 ), #42, .T. ) ;
#34 = EDGE_CURVE ( 'NONE', #90, #90, #63, .T. ) ;
#35 = APPROVAL ( #170, 'UNSPECIFIED' ) ;
#36 =( GEOMETRIC_REPRESENTATION_CONTEXT ( 3 ) GLOBAL_UNCERTAINTY_ASSIGNED_CONTEXT ( ( #32 ) ) GLOBAL_UNIT_ASSIGNED_CONTEXT ( ( #192, #72, #53 ) ) REPRESENTATION_CONTEXT ( 'NONE', 'WORKASPACE' ) );
#37 = CARTESIAN_POINT ( 'NONE',  ( -8.551700045867646674E-31, 2.999532597218505004E-32, -2.449304239644358043E-16 ) ) ;
#38 = APPROVAL_STATUS ( 'not_yet_approved' ) ;
#39 = CARTESIAN_POINT ( 'NONE',  ( 1.047444401652939691E-14, -1.301042606982607293E-15, 2.999999999999999112 ) ) ;
#40 = CARTESIAN_POINT ( 'NONE',  ( -5.347346342874975384E-31, -5.232951244006272134E-32, -1.531540863009957778E-16 ) ) ;
#41 = PLANE ( 'NONE',  #68 ) ;
#42 = CYLINDRICAL_SURFACE ( 'NONE', #141, 1.249999999999999334 ) ;
#43 = PLANE ( 'NONE',  #117 ) ;
#44 = CC_DESIGN_APPROVAL ( #35, ( #116 ) ) ;
#45 = CARTESIAN_POINT ( 'NONE',  ( 1.501001132094563131E-14, -1.999999999999997113, 4.299038105676670440 ) ) ;
#46 = ORIENTED_EDGE ( 'NONE', *, *, #157, .F. ) ;
#47 = VERTEX_POINT ( 'NONE', #200 ) ;
#48 = CARTESIAN_POINT ( 'NONE',  ( 1.222018468595096801E-13, 1.199807826129478286E-32, 35.00000000000000000 ) ) ;
#49 = PRODUCT_DEFINITION_FORMATION_WITH_SPECIFIED_SOURCE ( 'ANY', '', #173, .NOT_KNOWN. ) ;
#50 = EDGE_LOOP ( 'NONE', ( #159 ) ) ;
#51 = CONICAL_SURFACE ( 'NONE', #16, 1.599999999999998312, 0.7853981633974512766 ) ;
#52 = ADVANCED_FACE ( 'NONE', ( #197, #19 ), #51, .T. ) ;
#53 =( NAMED_UNIT ( * ) SI_UNIT ( $, .STERADIAN. ) SOLID_ANGLE_UNIT ( ) );
#54 = FACE_OUTER_BOUND ( 'NONE', #195, .T. ) ;
#55 = APPROVAL_PERSON_ORGANIZATION ( #98, #35, #155 ) ;
#56 = CARTESIAN_POINT ( 'NONE',  ( 0.0000000000000000000, 0.0000000000000000000, 0.0000000000000000000 ) ) ;
#57 = CARTESIAN_POINT ( 'NONE',  ( 1.047444401652939691E-14, -1.301042606982607293E-15, 2.999999999999999112 ) ) ;
#58 = DIRECTION ( 'NONE',  ( 0.0000000000000000000, 1.000000000000000000, 0.0000000000000000000 ) ) ;
#59 = ORIENTED_EDGE ( 'NONE', *, *, #69, .F. ) ;
#60 = VERTEX_POINT ( 'NONE', #128 ) ;
#61 = DIRECTION ( 'NONE',  ( -4.277877074299982760E-31, -1.000000000000000000, -1.225232690407966814E-16 ) ) ;
#62 = PERSON_AND_ORGANIZATION_ROLE ( 'classification_officer' ) ;
#63 = CIRCLE ( 'NONE', #5, 1.249999999999999334 ) ;
#64 = CC_DESIGN_DATE_AND_TIME_ASSIGNMENT ( #202, #110, ( #116 ) ) ;
#65 = SHAPE_DEFINITION_REPRESENTATION ( #67, #175 ) ;
#66 = APPROVAL ( #114, 'UNSPECIFIED' ) ;
#67 = PRODUCT_DEFINITION_SHAPE ( 'NONE', 'NONE',  #193 ) ;
#68 = AXIS2_PLACEMENT_3D ( 'NONE', #37, #88, #181 ) ;
#69 = EDGE_CURVE ( 'NONE', #198, #198, #121, .T. ) ;
#70 = APPLICATION_PROTOCOL_DEFINITION ( 'international standard', 'config_control_design', 1994, #8 ) ;
#71 = DIRECTION ( 'NONE',  ( -3.491481338843133355E-15, 1.224646799147353207E-16, -1.000000000000000000 ) ) ;
#72 =( NAMED_UNIT ( * ) PLANE_ANGLE_UNIT ( ) SI_UNIT ( $, .RADIAN. ) );
#73 = ORIENTED_EDGE ( 'NONE', *, *, #104, .F. ) ;
#74 = EDGE_CURVE ( 'NONE', #60, #60, #30, .T. ) ;
#75 = CARTESIAN_POINT ( 'NONE',  ( 1.501001132094563131E-14, -5.267322024384596589E-16, 4.299038105676670440 ) ) ;
#76 = CARTESIAN_POINT ( 'NONE',  ( 1.222018468595096801E-13, -4.286263797015736496E-15, 35.00000000000000000 ) ) ;
#77 = AXIS2_PLACEMENT_3D ( 'NONE', #211, #223, #215 ) ;
#78 = DIRECTION ( 'NONE',  ( 4.275831445896958607E-31, 1.000000000000000000, 1.224646799147353207E-16 ) ) ;
#79 = COORDINATED_UNIVERSAL_TIME_OFFSET ( 1, 0, .AHEAD. ) ;
#80 = DIRECTION ( 'NONE',  ( -3.491481338843133355E-15, 1.224646799147353207E-16, -1.000000000000000000 ) ) ;
#81 = DIRECTION ( 'NONE',  ( 3.491481338843133355E-15, -1.225232690407966814E-16, 1.000000000000000000 ) ) ;
#82 = PERSON_AND_ORGANIZATION ( #222, #204 ) ;
#83 = DATE_AND_TIME ( #14, #6 ) ;
#84 = DIRECTION ( 'NONE',  ( 4.275831445896958607E-31, 1.000000000000000000, 1.224646799147353207E-16 ) ) ;
#85 = CC_DESIGN_PERSON_AND_ORGANIZATION_ASSIGNMENT ( #151, #12, ( #49 ) ) ;
#86 = CALENDAR_DATE ( 2021, 8, 11 ) ;
#87 = APPROVAL ( #38, 'UNSPECIFIED' ) ;
#88 = DIRECTION ( 'NONE',  ( 3.491481338843133355E-15, -1.224646799147353207E-16, 1.000000000000000000 ) ) ;
#89 = EDGE_LOOP ( 'NONE', ( #111 ) ) ;
#90 = VERTEX_POINT ( 'NONE', #125 ) ;
#91 = EDGE_LOOP ( 'NONE', ( #127 ) ) ;
#92 = DATE_AND_TIME ( #86, #154 ) ;
#93 = EDGE_LOOP ( 'NONE', ( #46 ) ) ;
#94 = AXIS2_PLACEMENT_3D ( 'NONE', #75, #140, #209 ) ;
#95 = FACE_OUTER_BOUND ( 'NONE', #97, .T. ) ;
#96 = DIRECTION ( 'NONE',  ( -3.491481338843133355E-15, 1.224646799147353207E-16, -1.000000000000000000 ) ) ;
#97 = EDGE_LOOP ( 'NONE', ( #28 ) ) ;
#98 = PERSON_AND_ORGANIZATION ( #222, #204 ) ;
#99 = AXIS2_PLACEMENT_3D ( 'NONE', #39, #207, #167 ) ;
#100 = CC_DESIGN_PERSON_AND_ORGANIZATION_ASSIGNMENT ( #24, #118, ( #173 ) ) ;
#101 = CC_DESIGN_DATE_AND_TIME_ASSIGNMENT ( #126, #156, ( #193 ) ) ;
#102 = APPROVAL_PERSON_ORGANIZATION ( #29, #66, #218 ) ;
#103 = CC_DESIGN_SECURITY_CLASSIFICATION ( #116, ( #49 ) ) ;
#104 = EDGE_CURVE ( 'NONE', #47, #47, #219, .T. ) ;
#105 = CARTESIAN_POINT ( 'NONE',  ( -2.025941305359930978E-30, 0.0000000000000000000, -5.802526517387047816E-16 ) ) ;
#106 = DIRECTION ( 'NONE',  ( 3.491481338843133355E-15, -1.224646799147353207E-16, 1.000000000000000000 ) ) ;
#107 = APPROVAL_ROLE ( '' ) ;
#108 = EDGE_LOOP ( 'NONE', ( #59 ) ) ;
#109 = CARTESIAN_POINT ( 'NONE',  ( 1.208052543239724267E-13, 1.999999999999994005, 34.60000000000000853 ) ) ;
#110 = DATE_TIME_ROLE ( 'classification_date' ) ;
#111 = ORIENTED_EDGE ( 'NONE', *, *, #74, .T. ) ;
#112 = CLOSED_SHELL ( 'NONE', ( #143, #33, #162 ) ) ;
#113 = LOCAL_TIME ( 13, 44, 17.00000000000000000, #79 ) ;
#114 = APPROVAL_STATUS ( 'not_yet_approved' ) ;
#115 = EDGE_LOOP ( 'NONE', ( #163 ) ) ;
#116 = SECURITY_CLASSIFICATION ( '', '', #132 ) ;
#117 = AXIS2_PLACEMENT_3D ( 'NONE', #57, #106, #196 ) ;
#118 = PERSON_AND_ORGANIZATION_ROLE ( 'design_owner' ) ;
#119 = CARTESIAN_POINT ( 'NONE',  ( 1.501001132094563131E-14, -5.267322024384596589E-16, 4.299038105676670440 ) ) ;
#120 = DIRECTION ( 'NONE',  ( 0.0000000000000000000, 1.000000000000000000, 0.0000000000000000000 ) ) ;
#121 = CIRCLE ( 'NONE', #150, 1.999999999999998224 ) ;
#122 = FACE_OUTER_BOUND ( 'NONE', #50, .T. ) ;
#123 = VERTEX_POINT ( 'NONE', #3 ) ;
#124 = MANIFOLD_SOLID_BREP ( 'Corps-Déplacer/Copier1[2]', #112 ) ;
#125 = CARTESIAN_POINT ( 'NONE',  ( 1.047444401652939533E-14, -1.249999999999999778, 2.999999999999998668 ) ) ;
#126 = DATE_AND_TIME ( #146, #113 ) ;
#127 = ORIENTED_EDGE ( 'NONE', *, *, #34, .F. ) ;
#128 = CARTESIAN_POINT ( 'NONE',  ( 1.222018468595096801E-13, 1.599999999999994094, 35.00000000000000000 ) ) ;
#129 = APPLICATION_CONTEXT ( 'configuration controlled 3d designs of mechanical parts and assemblies' ) ;
#130 = COORDINATED_UNIVERSAL_TIME_OFFSET ( 1, 0, .AHEAD. ) ;
#131 = ADVANCED_FACE ( 'NONE', ( #168 ), #187, .F. ) ;
#132 = SECURITY_CLASSIFICATION_LEVEL ( 'unclassified' ) ;
#133 = AXIS2_PLACEMENT_3D ( 'NONE', #213, #21, #160 ) ;
#134 = PERSON_AND_ORGANIZATION_ROLE ( 'creator' ) ;
#135 = COORDINATED_UNIVERSAL_TIME_OFFSET ( 1, 0, .AHEAD. ) ;
#136 = LOCAL_TIME ( 13, 44, 17.00000000000000000, #135 ) ;
#137 = PLANE ( 'NONE',  #99 ) ;
#138 = CARTESIAN_POINT ( 'NONE',  ( 1.208052543239724267E-13, -4.237277925049843068E-15, 34.60000000000000853 ) ) ;
#139 = CC_DESIGN_PERSON_AND_ORGANIZATION_ASSIGNMENT ( #148, #62, ( #116 ) ) ;
#140 = DIRECTION ( 'NONE',  ( 3.491481338843133355E-15, -1.225232690407966814E-16, 1.000000000000000000 ) ) ;
#141 = AXIS2_PLACEMENT_3D ( 'NONE', #105, #81, #145 ) ;
#142 = APPROVAL_PERSON_ORGANIZATION ( #180, #87, #107 ) ;
#143 = ADVANCED_FACE ( 'NONE', ( #183 ), #137, .T. ) ;
#144 = DIRECTION ( 'NONE',  ( 0.0000000000000000000, -1.000000000000000000, 0.0000000000000000000 ) ) ;
#145 = DIRECTION ( 'NONE',  ( -4.277877074299981008E-31, -1.000000000000000000, -1.225232690407966567E-16 ) ) ;
#146 = CALENDAR_DATE ( 2021, 8, 11 ) ;
#147 = EDGE_LOOP ( 'NONE', ( #26 ) ) ;
#148 = PERSON_AND_ORGANIZATION ( #222, #204 ) ;
#149 = ADVANCED_FACE ( 'NONE', ( #95, #54 ), #11, .T. ) ;
#150 = AXIS2_PLACEMENT_3D ( 'NONE', #138, #71, #2 ) ;
#151 = PERSON_AND_ORGANIZATION ( #222, #204 ) ;
#152 = DATE_AND_TIME ( #15, #136 ) ;
#153 = AXIS2_PLACEMENT_3D ( 'NONE', #48, #18, #84 ) ;
#154 = LOCAL_TIME ( 13, 44, 17.00000000000000000, #177 ) ;
#155 = APPROVAL_ROLE ( '' ) ;
#156 = DATE_TIME_ROLE ( 'creation_date' ) ;
#157 = EDGE_CURVE ( 'NONE', #216, #216, #27, .T. ) ;
#158 = DIRECTION ( 'NONE',  ( 3.491481338843133355E-15, -1.225232690407966814E-16, 1.000000000000000000 ) ) ;
#159 = ORIENTED_EDGE ( 'NONE', *, *, #172, .F. ) ;
#160 = DIRECTION ( 'NONE',  ( 0.0000000000000000000, -1.000000000000000000, 0.0000000000000000000 ) ) ;
#161 = MECHANICAL_CONTEXT ( 'NONE', #8, 'mechanical' ) ;
#162 = ADVANCED_FACE ( 'NONE', ( #194 ), #41, .F. ) ;
#163 = ORIENTED_EDGE ( 'NONE', *, *, #74, .F. ) ;
#164 = FACE_OUTER_BOUND ( 'NONE', #147, .T. ) ;
#165 = PERSON_AND_ORGANIZATION ( #222, #204 ) ;
#166 = AXIS2_PLACEMENT_3D ( 'NONE', #56, #80, #78 ) ;
#167 = DIRECTION ( 'NONE',  ( -4.275831445896958607E-31, -1.000000000000000000, -1.224646799147353207E-16 ) ) ;
#168 = FACE_OUTER_BOUND ( 'NONE', #115, .T. ) ;
#169 = COORDINATED_UNIVERSAL_TIME_OFFSET ( 1, 0, .AHEAD. ) ;
#170 = APPROVAL_STATUS ( 'not_yet_approved' ) ;
#171 = EDGE_LOOP ( 'NONE', ( #73 ) ) ;
#172 = EDGE_CURVE ( 'NONE', #123, #123, #31, .T. ) ;
#173 = PRODUCT ( '960658', '960658', '', ( #161 ) ) ;
#174 = ADVANCED_FACE ( 'NONE', ( #176, #22 ), #185, .T. ) ;
#175 = ADVANCED_BREP_SHAPE_REPRESENTATION ( '960658', ( #203, #124, #77 ), #36 ) ;
#176 = FACE_BOUND ( 'NONE', #179, .T. ) ;
#177 = COORDINATED_UNIVERSAL_TIME_OFFSET ( 1, 0, .AHEAD. ) ;
#178 = AXIS2_PLACEMENT_3D ( 'NONE', #40, #158, #61 ) ;
#179 = EDGE_LOOP ( 'NONE', ( #184 ) ) ;
#180 = PERSON_AND_ORGANIZATION ( #222, #204 ) ;
#181 = DIRECTION ( 'NONE',  ( -4.275831445896958607E-31, -1.000000000000000000, -1.224646799147353207E-16 ) ) ;
#182 = DIRECTION ( 'NONE',  ( 3.491481338843133355E-15, -1.225232690407966814E-16, 1.000000000000000000 ) ) ;
#183 = FACE_OUTER_BOUND ( 'NONE', #201, .T. ) ;
#184 = ORIENTED_EDGE ( 'NONE', *, *, #172, .T. ) ;
#185 = CONICAL_SURFACE ( 'NONE', #94, 1.999999999999996669, 0.5235987755982927094 ) ;
#186 = APPROVAL_DATE_TIME ( #83, #66 ) ;
#187 = PLANE ( 'NONE',  #153 ) ;
#188 = DESIGN_CONTEXT ( 'detailed design', #129, 'design' ) ;
#189 = AXIS2_PLACEMENT_3D ( 'NONE', #199, #96, #120 ) ;
#190 = DIRECTION ( 'NONE',  ( 3.491481338843133355E-15, -1.225232690407966814E-16, 1.000000000000000000 ) ) ;
#191 = APPLICATION_PROTOCOL_DEFINITION ( 'international standard', 'config_control_design', 1994, #129 ) ;
#192 =( LENGTH_UNIT ( ) NAMED_UNIT ( * ) SI_UNIT ( .MILLI., .METRE. ) );
#193 = PRODUCT_DEFINITION ( 'UNKNOWN', '', #49, #188 ) ;
#194 = FACE_OUTER_BOUND ( 'NONE', #171, .T. ) ;
#195 = EDGE_LOOP ( 'NONE', ( #205 ) ) ;
#196 = DIRECTION ( 'NONE',  ( -4.275831445896958607E-31, -1.000000000000000000, -1.224646799147353207E-16 ) ) ;
#197 = FACE_OUTER_BOUND ( 'NONE', #108, .T. ) ;
#198 = VERTEX_POINT ( 'NONE', #109 ) ;
#199 = CARTESIAN_POINT ( 'NONE',  ( 1.222018468595096801E-13, -4.286263797015736496E-15, 35.00000000000000000 ) ) ;
#200 = CARTESIAN_POINT ( 'NONE',  ( -1.069469268574995077E-30, -1.249999999999999334, -3.063081726019915556E-16 ) ) ;
#201 = EDGE_LOOP ( 'NONE', ( #10 ) ) ;
#202 = DATE_AND_TIME ( #220, #206 ) ;
#203 = MANIFOLD_SOLID_BREP ( 'Corps-Déplacer/Copier1[1]', #1 ) ;
#204 = ORGANIZATION ( 'UNSPECIFIED', 'UNSPECIFIED', '' ) ;
#205 = ORIENTED_EDGE ( 'NONE', *, *, #157, .T. ) ;
#206 = LOCAL_TIME ( 13, 44, 17.00000000000000000, #130 ) ;
#207 = DIRECTION ( 'NONE',  ( 3.491481338843133355E-15, -1.224646799147353207E-16, 1.000000000000000000 ) ) ;
#208 = ADVANCED_FACE ( 'NONE', ( #122 ), #43, .F. ) ;
#209 = DIRECTION ( 'NONE',  ( 0.0000000000000000000, -1.000000000000000000, 0.0000000000000000000 ) ) ;
#210 = CC_DESIGN_APPROVAL ( #87, ( #193 ) ) ;
#211 = CARTESIAN_POINT ( 'NONE',  ( 0.0000000000000000000, 0.0000000000000000000, 0.0000000000000000000 ) ) ;
#212 = PRODUCT_RELATED_PRODUCT_CATEGORY ( 'detail', '', ( #173 ) ) ;
#213 = CARTESIAN_POINT ( 'NONE',  ( 1.047444401652939533E-14, -3.675698071223899456E-16, 2.999999999999998668 ) ) ;
#214 = DIRECTION ( 'NONE',  ( -3.491481338843133355E-15, 1.224646799147353207E-16, -1.000000000000000000 ) ) ;
#215 = DIRECTION ( 'NONE',  ( 1.000000000000000000, 0.0000000000000000000, 0.0000000000000000000 ) ) ;
#216 = VERTEX_POINT ( 'NONE', #45 ) ;
#217 = CARTESIAN_POINT ( 'NONE',  ( 1.047444401652939533E-14, -3.675698071223899456E-16, 2.999999999999998668 ) ) ;
#218 = APPROVAL_ROLE ( '' ) ;
#219 = CIRCLE ( 'NONE', #178, 1.249999999999999334 ) ;
#220 = CALENDAR_DATE ( 2021, 8, 11 ) ;
#221 = APPROVAL_DATE_TIME ( #152, #35 ) ;
#222 = PERSON ( 'UNSPECIFIED', 'UNSPECIFIED', 'UNSPECIFIED', ('UNSPECIFIED'), ('UNSPECIFIED'), ('UNSPECIFIED') ) ;
#223 = DIRECTION ( 'NONE',  ( 0.0000000000000000000, 0.0000000000000000000, 1.000000000000000000 ) ) ;
ENDSEC;
END-ISO-10303-21;
