ISO-10303-21;
HEADER;
FILE_DESCRIPTION (( 'STEP AP203' ),
    '1' );
FILE_NAME ('960657.step',
    '2021-11-08T12:44:16',
    ( '' ),
    ( '' ),
    'SwSTEP 2.0',
    'SolidWorks 2019',
    '' );
FILE_SCHEMA (( 'CONFIG_CONTROL_DESIGN' ));
ENDSEC;

DATA;
#1 = PRODUCT_DEFINITION ( 'UNKNOWN', '', #42, #95 ) ;
#2 = ORIENTED_EDGE ( 'NONE', *, *, #144, .F. ) ;
#3 = AXIS2_PLACEMENT_3D ( 'NONE', #29, #208, #22 ) ;
#4 = DIRECTION ( 'NONE',  ( 0.0000000000000000000, 1.000000000000000000, 0.0000000000000000000 ) ) ;
#5 = ADVANCED_FACE ( 'NONE', ( #25, #67 ), #20, .T. ) ;
#6 = FACE_OUTER_BOUND ( 'NONE', #197, .T. ) ;
#7 = APPROVAL_PERSON_ORGANIZATION ( #77, #74, #61 ) ;
#8 = CARTESIAN_POINT ( 'NONE',  ( 8.728703347107830233E-15, -1.000000000000000000, 2.499999999999999112 ) ) ;
#9 = LOCAL_TIME ( 13, 44, 16.00000000000000000, #196 ) ;
#10 = FACE_OUTER_BOUND ( 'NONE', #70, .T. ) ;
#11 = EDGE_CURVE ( 'NONE', #192, #192, #54, .T. ) ;
#12 = AXIS2_PLACEMENT_3D ( 'NONE', #24, #68, #132 ) ;
#13 = APPLICATION_CONTEXT ( 'configuration controlled 3d designs of mechanical parts and assemblies' ) ;
#14 = CARTESIAN_POINT ( 'NONE',  ( 0.0000000000000000000, 0.0000000000000000000, 0.0000000000000000000 ) ) ;
#15 = DATE_AND_TIME ( #164, #89 ) ;
#16 = ADVANCED_FACE ( 'NONE', ( #6 ), #64, .F. ) ;
#17 = CALENDAR_DATE ( 2021, 8, 11 ) ;
#18 = DIRECTION ( 'NONE',  ( 3.491481338843133355E-15, -1.224646799147353207E-16, 1.000000000000000000 ) ) ;
#19 = CC_DESIGN_PERSON_AND_ORGANIZATION_ASSIGNMENT ( #131, #201, ( #1 ) ) ;
#20 = CYLINDRICAL_SURFACE ( 'NONE', #75, 1.999999999999996669 ) ;
#21 = CC_DESIGN_SECURITY_CLASSIFICATION ( #115, ( #42 ) ) ;
#22 = DIRECTION ( 'NONE',  ( 4.275831445896958607E-31, 1.000000000000000000, 1.224646799147353207E-16 ) ) ;
#23 = DIRECTION ( 'NONE',  ( -3.491481338843133355E-15, 1.224646799147353207E-16, -1.000000000000000000 ) ) ;
#24 = CARTESIAN_POINT ( 'NONE',  ( 1.222018468595096801E-13, -4.286263797015736496E-15, 35.00000000000000000 ) ) ;
#25 = FACE_OUTER_BOUND ( 'NONE', #210, .T. ) ;
#26 = CIRCLE ( 'NONE', #200, 1.999999999999998224 ) ;
#27 = COORDINATED_UNIVERSAL_TIME_OFFSET ( 1, 0, .AHEAD. ) ;
#28 = PERSON_AND_ORGANIZATION ( #175, #221 ) ;
#29 = CARTESIAN_POINT ( 'NONE',  ( 1.222018468595096801E-13, 1.199807826129478286E-32, 35.00000000000000000 ) ) ;
#30 = DIRECTION ( 'NONE',  ( 3.491481338843133355E-15, -1.224646799147353207E-16, 1.000000000000000000 ) ) ;
#31 = FACE_OUTER_BOUND ( 'NONE', #140, .T. ) ;
#32 = EDGE_LOOP ( 'NONE', ( #83 ) ) ;
#33 = CYLINDRICAL_SURFACE ( 'NONE', #143, 0.9999999999999997780 ) ;
#34 = ORIENTED_EDGE ( 'NONE', *, *, #123, .F. ) ;
#35 = CLOSED_SHELL ( 'NONE', ( #5, #129, #161, #213, #16 ) ) ;
#36 = DIRECTION ( 'NONE',  ( 3.491481338843133355E-15, -1.225232690407966814E-16, 1.000000000000000000 ) ) ;
#37 = ORIENTED_EDGE ( 'NONE', *, *, #207, .T. ) ;
#38 = CARTESIAN_POINT ( 'NONE',  ( -8.555754148599962016E-31, -0.9999999999999997780, -2.450465380815933135E-16 ) ) ;
#39 = CARTESIAN_POINT ( 'NONE',  ( -8.551700045867646674E-31, 2.999532597218505004E-32, -2.449304239644358043E-16 ) ) ;
#40 = EDGE_CURVE ( 'NONE', #101, #101, #69, .T. ) ;
#41 = EDGE_LOOP ( 'NONE', ( #65 ) ) ;
#42 = PRODUCT_DEFINITION_FORMATION_WITH_SPECIFIED_SOURCE ( 'ANY', '', #124, .NOT_KNOWN. ) ;
#43 = SECURITY_CLASSIFICATION_LEVEL ( 'unclassified' ) ;
#44 = UNCERTAINTY_MEASURE_WITH_UNIT (LENGTH_MEASURE( 1.000000000000000082E-05 ), #206, 'distance_accuracy_value', 'NONE');
#45 = PERSON_AND_ORGANIZATION ( #175, #221 ) ;
#46 = CIRCLE ( 'NONE', #137, 0.9999999999999997780 ) ;
#47 = DATE_TIME_ROLE ( 'creation_date' ) ;
#48 = APPROVAL_STATUS ( 'not_yet_approved' ) ;
#49 = CC_DESIGN_PERSON_AND_ORGANIZATION_ASSIGNMENT ( #106, #81, ( #42 ) ) ;
#50 = CALENDAR_DATE ( 2021, 8, 11 ) ;
#51 = APPROVAL ( #48, 'UNSPECIFIED' ) ;
#52 = CARTESIAN_POINT ( 'NONE',  ( -2.025941305359930978E-30, 0.0000000000000000000, -5.802526517387047816E-16 ) ) ;
#53 = CARTESIAN_POINT ( 'NONE',  ( 8.728703347107830233E-15, -3.063081726019916542E-16, 2.499999999999999112 ) ) ;
#54 = CIRCLE ( 'NONE', #174, 1.599999999999998312 ) ;
#55 = CARTESIAN_POINT ( 'NONE',  ( 1.477612641966280733E-14, -5.185246996900846875E-16, 4.232050807568894513 ) ) ;
#56 = DIRECTION ( 'NONE',  ( -4.275831445896958607E-31, -1.000000000000000000, -1.224646799147353207E-16 ) ) ;
#57 = EDGE_LOOP ( 'NONE', ( #37 ) ) ;
#58 = CARTESIAN_POINT ( 'NONE',  ( 1.208052543239724267E-13, 1.999999999999994005, 34.60000000000000853 ) ) ;
#59 = CARTESIAN_POINT ( 'NONE',  ( 1.208052543239724267E-13, -4.237277925049843068E-15, 34.60000000000000853 ) ) ;
#60 = CIRCLE ( 'NONE', #168, 1.999999999999996669 ) ;
#61 = APPROVAL_ROLE ( '' ) ;
#62 = APPROVAL_DATE_TIME ( #222, #51 ) ;
#63 = AXIS2_PLACEMENT_3D ( 'NONE', #138, #36, #158 ) ;
#64 = PLANE ( 'NONE',  #114 ) ;
#65 = ORIENTED_EDGE ( 'NONE', *, *, #87, .F. ) ;
#66 = CARTESIAN_POINT ( 'NONE',  ( 1.477612641966280733E-14, -5.185246996900846875E-16, 4.232050807568894513 ) ) ;
#67 = FACE_OUTER_BOUND ( 'NONE', #186, .T. ) ;
#68 = DIRECTION ( 'NONE',  ( -3.491481338843133355E-15, 1.224646799147353207E-16, -1.000000000000000000 ) ) ;
#69 = CIRCLE ( 'NONE', #151, 0.9999999999999997780 ) ;
#70 = EDGE_LOOP ( 'NONE', ( #2 ) ) ;
#71 = FACE_BOUND ( 'NONE', #32, .T. ) ;
#72 = EDGE_LOOP ( 'NONE', ( #98 ) ) ;
#73 = ORIENTED_EDGE ( 'NONE', *, *, #123, .T. ) ;
#74 = APPROVAL ( #167, 'UNSPECIFIED' ) ;
#75 = AXIS2_PLACEMENT_3D ( 'NONE', #188, #23, #170 ) ;
#76 = CARTESIAN_POINT ( 'NONE',  ( 1.477612641966280733E-14, -1.999999999999997113, 4.232050807568894513 ) ) ;
#77 = PERSON_AND_ORGANIZATION ( #175, #221 ) ;
#78 = AXIS2_PLACEMENT_3D ( 'NONE', #204, #30, #154 ) ;
#79 = PRODUCT_DEFINITION_SHAPE ( 'NONE', 'NONE',  #1 ) ;
#80 = APPROVAL_PERSON_ORGANIZATION ( #125, #51, #179 ) ;
#81 = PERSON_AND_ORGANIZATION_ROLE ( 'creator' ) ;
#82 = DIRECTION ( 'NONE',  ( -4.275831445896958607E-31, -1.000000000000000000, -1.224646799147353207E-16 ) ) ;
#83 = ORIENTED_EDGE ( 'NONE', *, *, #11, .T. ) ;
#84 = FACE_OUTER_BOUND ( 'NONE', #72, .T. ) ;
#85 = DIRECTION ( 'NONE',  ( 0.0000000000000000000, -1.000000000000000000, 0.0000000000000000000 ) ) ;
#86 = EDGE_LOOP ( 'NONE', ( #121 ) ) ;
#87 = EDGE_CURVE ( 'NONE', #211, #211, #26, .T. ) ;
#88 = DIRECTION ( 'NONE',  ( 0.0000000000000000000, -1.000000000000000000, 0.0000000000000000000 ) ) ;
#89 = LOCAL_TIME ( 13, 44, 16.00000000000000000, #199 ) ;
#90 = ADVANCED_FACE ( 'NONE', ( #31 ), #180, .F. ) ;
#91 = AXIS2_PLACEMENT_3D ( 'NONE', #14, #105, #177 ) ;
#92 = APPLICATION_PROTOCOL_DEFINITION ( 'international standard', 'config_control_design', 1994, #13 ) ;
#93 = CC_DESIGN_PERSON_AND_ORGANIZATION_ASSIGNMENT ( #146, #113, ( #124 ) ) ;
#94 = APPROVAL_STATUS ( 'not_yet_approved' ) ;
#95 = DESIGN_CONTEXT ( 'detailed design', #220, 'design' ) ;
#96 = AXIS2_PLACEMENT_3D ( 'NONE', #39, #18, #82 ) ;
#97 = CC_DESIGN_APPROVAL ( #51, ( #1 ) ) ;
#98 = ORIENTED_EDGE ( 'NONE', *, *, #144, .T. ) ;
#99 = FACE_OUTER_BOUND ( 'NONE', #172, .T. ) ;
#100 = PRODUCT_RELATED_PRODUCT_CATEGORY ( 'detail', '', ( #124 ) ) ;
#101 = VERTEX_POINT ( 'NONE', #38 ) ;
#102 = VERTEX_POINT ( 'NONE', #8 ) ;
#103 = ORIENTED_EDGE ( 'NONE', *, *, #207, .F. ) ;
#104 = LOCAL_TIME ( 13, 44, 16.00000000000000000, #184 ) ;
#105 = DIRECTION ( 'NONE',  ( 0.0000000000000000000, 0.0000000000000000000, 1.000000000000000000 ) ) ;
#106 = PERSON_AND_ORGANIZATION ( #175, #221 ) ;
#107 = CC_DESIGN_PERSON_AND_ORGANIZATION_ASSIGNMENT ( #28, #130, ( #115 ) ) ;
#108 = EDGE_LOOP ( 'NONE', ( #166 ) ) ;
#109 = DATE_AND_TIME ( #17, #218 ) ;
#110 = CIRCLE ( 'NONE', #63, 0.9999999999999997780 ) ;
#111 = SHAPE_DEFINITION_REPRESENTATION ( #79, #134 ) ;
#112 = DATE_AND_TIME ( #50, #104 ) ;
#113 = PERSON_AND_ORGANIZATION_ROLE ( 'design_owner' ) ;
#114 = AXIS2_PLACEMENT_3D ( 'NONE', #139, #209, #56 ) ;
#115 = SECURITY_CLASSIFICATION ( '', '', #43 ) ;
#116 = PLANE ( 'NONE',  #3 ) ;
#117 = DIRECTION ( 'NONE',  ( 0.0000000000000000000, 1.000000000000000000, 0.0000000000000000000 ) ) ;
#118 = CC_DESIGN_PERSON_AND_ORGANIZATION_ASSIGNMENT ( #45, #148, ( #42 ) ) ;
#119 = DIRECTION ( 'NONE',  ( 3.491481338843133355E-15, -1.225232690407966814E-16, 1.000000000000000000 ) ) ;
#120 = DIRECTION ( 'NONE',  ( 3.491481338843133355E-15, -1.225232690407966814E-16, 1.000000000000000000 ) ) ;
#121 = ORIENTED_EDGE ( 'NONE', *, *, #40, .T. ) ;
#122 = CARTESIAN_POINT ( 'NONE',  ( 1.222018468595096801E-13, 1.599999999999994094, 35.00000000000000000 ) ) ;
#123 = EDGE_CURVE ( 'NONE', #157, #157, #60, .T. ) ;
#124 = PRODUCT ( '960657', '960657', '', ( #198 ) ) ;
#125 = PERSON_AND_ORGANIZATION ( #175, #221 ) ;
#126 = COORDINATED_UNIVERSAL_TIME_OFFSET ( 1, 0, .AHEAD. ) ;
#127 = CC_DESIGN_APPROVAL ( #74, ( #42 ) ) ;
#128 = CALENDAR_DATE ( 2021, 8, 11 ) ;
#129 = ADVANCED_FACE ( 'NONE', ( #169, #71 ), #147, .T. ) ;
#130 = PERSON_AND_ORGANIZATION_ROLE ( 'classification_officer' ) ;
#131 = PERSON_AND_ORGANIZATION ( #175, #221 ) ;
#132 = DIRECTION ( 'NONE',  ( 0.0000000000000000000, 1.000000000000000000, 0.0000000000000000000 ) ) ;
#133 = DIRECTION ( 'NONE',  ( -3.491481338843133355E-15, 1.224646799147353207E-16, -1.000000000000000000 ) ) ;
#134 = ADVANCED_BREP_SHAPE_REPRESENTATION ( '960657', ( #141, #142, #91 ), #162 ) ;
#135 = PLANE ( 'NONE',  #78 ) ;
#136 = CARTESIAN_POINT ( 'NONE',  ( 8.728703347107830233E-15, -1.000000000000000000, 2.499999999999999112 ) ) ;
#137 = AXIS2_PLACEMENT_3D ( 'NONE', #53, #119, #85 ) ;
#138 = CARTESIAN_POINT ( 'NONE',  ( 8.728703347107830233E-15, -3.063081726019916542E-16, 2.499999999999999112 ) ) ;
#139 = CARTESIAN_POINT ( 'NONE',  ( 8.728703347107831810E-15, -1.084202172485506209E-15, 2.499999999999999556 ) ) ;
#140 = EDGE_LOOP ( 'NONE', ( #155 ) ) ;
#141 = MANIFOLD_SOLID_BREP ( 'Corps-Déplacer/Copier1[1]', #35 ) ;
#142 = MANIFOLD_SOLID_BREP ( 'Corps-Déplacer/Copier1[2]', #193 ) ;
#143 = AXIS2_PLACEMENT_3D ( 'NONE', #52, #185, #173 ) ;
#144 = EDGE_CURVE ( 'NONE', #102, #102, #110, .T. ) ;
#145 = APPROVAL_ROLE ( '' ) ;
#146 = PERSON_AND_ORGANIZATION ( #175, #221 ) ;
#147 = CONICAL_SURFACE ( 'NONE', #12, 1.599999999999998312, 0.7853981633974512766 ) ;
#148 = PERSON_AND_ORGANIZATION_ROLE ( 'design_supplier' ) ;
#149 = ADVANCED_FACE ( 'NONE', ( #203, #10 ), #33, .T. ) ;
#150 = DIRECTION ( 'NONE',  ( -3.491481338843133355E-15, 1.224646799147353207E-16, -1.000000000000000000 ) ) ;
#151 = AXIS2_PLACEMENT_3D ( 'NONE', #212, #191, #159 ) ;
#152 = CC_DESIGN_APPROVAL ( #202, ( #115 ) ) ;
#153 = ORIENTED_EDGE ( 'NONE', *, *, #87, .T. ) ;
#154 = DIRECTION ( 'NONE',  ( -4.275831445896958607E-31, -1.000000000000000000, -1.224646799147353207E-16 ) ) ;
#155 = ORIENTED_EDGE ( 'NONE', *, *, #40, .F. ) ;
#156 = CARTESIAN_POINT ( 'NONE',  ( 1.222018468595096801E-13, -4.286263797015736496E-15, 35.00000000000000000 ) ) ;
#157 = VERTEX_POINT ( 'NONE', #76 ) ;
#158 = DIRECTION ( 'NONE',  ( 0.0000000000000000000, -1.000000000000000000, 0.0000000000000000000 ) ) ;
#159 = DIRECTION ( 'NONE',  ( -4.277877074299981008E-31, -1.000000000000000000, -1.225232690407966814E-16 ) ) ;
#160 =( NAMED_UNIT ( * ) SI_UNIT ( $, .STERADIAN. ) SOLID_ANGLE_UNIT ( ) );
#161 = ADVANCED_FACE ( 'NONE', ( #171 ), #116, .F. ) ;
#162 =( GEOMETRIC_REPRESENTATION_CONTEXT ( 3 ) GLOBAL_UNCERTAINTY_ASSIGNED_CONTEXT ( ( #44 ) ) GLOBAL_UNIT_ASSIGNED_CONTEXT ( ( #206, #189, #160 ) ) REPRESENTATION_CONTEXT ( 'NONE', 'WORKASPACE' ) );
#163 = CC_DESIGN_DATE_AND_TIME_ASSIGNMENT ( #112, #47, ( #1 ) ) ;
#164 = CALENDAR_DATE ( 2021, 8, 11 ) ;
#165 = DATE_AND_TIME ( #128, #9 ) ;
#166 = ORIENTED_EDGE ( 'NONE', *, *, #11, .F. ) ;
#167 = APPROVAL_STATUS ( 'not_yet_approved' ) ;
#168 = AXIS2_PLACEMENT_3D ( 'NONE', #66, #183, #88 ) ;
#169 = FACE_OUTER_BOUND ( 'NONE', #41, .T. ) ;
#170 = DIRECTION ( 'NONE',  ( 4.275831445896958607E-31, 1.000000000000000000, 1.224646799147353207E-16 ) ) ;
#171 = FACE_OUTER_BOUND ( 'NONE', #108, .T. ) ;
#172 = EDGE_LOOP ( 'NONE', ( #34 ) ) ;
#173 = DIRECTION ( 'NONE',  ( -4.277877074299981884E-31, -1.000000000000000000, -1.225232690407966814E-16 ) ) ;
#174 = AXIS2_PLACEMENT_3D ( 'NONE', #156, #150, #4 ) ;
#175 = PERSON ( 'UNSPECIFIED', 'UNSPECIFIED', 'UNSPECIFIED', ('UNSPECIFIED'), ('UNSPECIFIED'), ('UNSPECIFIED') ) ;
#176 = CC_DESIGN_DATE_AND_TIME_ASSIGNMENT ( #15, #223, ( #115 ) ) ;
#177 = DIRECTION ( 'NONE',  ( 1.000000000000000000, 0.0000000000000000000, 0.0000000000000000000 ) ) ;
#178 = CONICAL_SURFACE ( 'NONE', #205, 1.999999999999996669, 0.5235987755982929315 ) ;
#179 = APPROVAL_ROLE ( '' ) ;
#180 = PLANE ( 'NONE',  #96 ) ;
#181 = APPROVAL_DATE_TIME ( #165, #202 ) ;
#182 = APPROVAL_DATE_TIME ( #109, #74 ) ;
#183 = DIRECTION ( 'NONE',  ( 3.491481338843133355E-15, -1.225232690407966814E-16, 1.000000000000000000 ) ) ;
#184 = COORDINATED_UNIVERSAL_TIME_OFFSET ( 1, 0, .AHEAD. ) ;
#185 = DIRECTION ( 'NONE',  ( 3.491481338843133355E-15, -1.225232690407966814E-16, 1.000000000000000000 ) ) ;
#186 = EDGE_LOOP ( 'NONE', ( #73 ) ) ;
#187 = FACE_BOUND ( 'NONE', #57, .T. ) ;
#188 = CARTESIAN_POINT ( 'NONE',  ( 0.0000000000000000000, 0.0000000000000000000, 0.0000000000000000000 ) ) ;
#189 =( NAMED_UNIT ( * ) PLANE_ANGLE_UNIT ( ) SI_UNIT ( $, .RADIAN. ) );
#190 = DIRECTION ( 'NONE',  ( 0.0000000000000000000, -1.000000000000000000, 0.0000000000000000000 ) ) ;
#191 = DIRECTION ( 'NONE',  ( 3.491481338843133355E-15, -1.225232690407966814E-16, 1.000000000000000000 ) ) ;
#192 = VERTEX_POINT ( 'NONE', #122 ) ;
#193 = CLOSED_SHELL ( 'NONE', ( #194, #149, #90 ) ) ;
#194 = ADVANCED_FACE ( 'NONE', ( #84 ), #135, .T. ) ;
#195 = LOCAL_TIME ( 13, 44, 16.00000000000000000, #27 ) ;
#196 = COORDINATED_UNIVERSAL_TIME_OFFSET ( 1, 0, .AHEAD. ) ;
#197 = EDGE_LOOP ( 'NONE', ( #103 ) ) ;
#198 = MECHANICAL_CONTEXT ( 'NONE', #13, 'mechanical' ) ;
#199 = COORDINATED_UNIVERSAL_TIME_OFFSET ( 1, 0, .AHEAD. ) ;
#200 = AXIS2_PLACEMENT_3D ( 'NONE', #59, #133, #117 ) ;
#201 = PERSON_AND_ORGANIZATION_ROLE ( 'creator' ) ;
#202 = APPROVAL ( #94, 'UNSPECIFIED' ) ;
#203 = FACE_OUTER_BOUND ( 'NONE', #86, .T. ) ;
#204 = CARTESIAN_POINT ( 'NONE',  ( 8.728703347107831810E-15, -1.084202172485506209E-15, 2.499999999999999556 ) ) ;
#205 = AXIS2_PLACEMENT_3D ( 'NONE', #55, #120, #190 ) ;
#206 =( LENGTH_UNIT ( ) NAMED_UNIT ( * ) SI_UNIT ( .MILLI., .METRE. ) );
#207 = EDGE_CURVE ( 'NONE', #214, #214, #46, .T. ) ;
#208 = DIRECTION ( 'NONE',  ( -3.491481338843133355E-15, 1.224646799147353207E-16, -1.000000000000000000 ) ) ;
#209 = DIRECTION ( 'NONE',  ( 3.491481338843133355E-15, -1.224646799147353207E-16, 1.000000000000000000 ) ) ;
#210 = EDGE_LOOP ( 'NONE', ( #153 ) ) ;
#211 = VERTEX_POINT ( 'NONE', #58 ) ;
#212 = CARTESIAN_POINT ( 'NONE',  ( -4.277877074299981884E-31, -5.608250030417357719E-32, -1.225232690407966567E-16 ) ) ;
#213 = ADVANCED_FACE ( 'NONE', ( #187, #99 ), #178, .T. ) ;
#214 = VERTEX_POINT ( 'NONE', #136 ) ;
#215 = APPROVAL_PERSON_ORGANIZATION ( #219, #202, #145 ) ;
#216 = APPLICATION_PROTOCOL_DEFINITION ( 'international standard', 'config_control_design', 1994, #220 ) ;
#217 = CALENDAR_DATE ( 2021, 8, 11 ) ;
#218 = LOCAL_TIME ( 13, 44, 16.00000000000000000, #126 ) ;
#219 = PERSON_AND_ORGANIZATION ( #175, #221 ) ;
#220 = APPLICATION_CONTEXT ( 'configuration controlled 3d designs of mechanical parts and assemblies' ) ;
#221 = ORGANIZATION ( 'UNSPECIFIED', 'UNSPECIFIED', '' ) ;
#222 = DATE_AND_TIME ( #217, #195 ) ;
#223 = DATE_TIME_ROLE ( 'classification_date' ) ;
ENDSEC;
END-ISO-10303-21;
