ISO-10303-21;
HEADER;
FILE_DESCRIPTION (( 'STEP AP203' ),
    '1' );
FILE_NAME ('960656.step',
    '2021-11-08T12:44:15',
    ( '' ),
    ( '' ),
    'SwSTEP 2.0',
    'SolidWorks 2019',
    '' );
FILE_SCHEMA (( 'CONFIG_CONTROL_DESIGN' ));
ENDSEC;

DATA;
#1 = CARTESIAN_POINT ( 'NONE',  ( 8.728703347107830233E-15, -3.063081726019916542E-16, 2.499999999999999112 ) ) ;
#2 = FACE_OUTER_BOUND ( 'NONE', #64, .T. ) ;
#3 =( GEOMETRIC_REPRESENTATION_CONTEXT ( 3 ) GLOBAL_UNCERTAINTY_ASSIGNED_CONTEXT ( ( #40 ) ) GLOBAL_UNIT_ASSIGNED_CONTEXT ( ( #194, #176, #11 ) ) REPRESENTATION_CONTEXT ( 'NONE', 'WORKASPACE' ) );
#4 = DIRECTION ( 'NONE',  ( 4.275831445896958607E-31, 1.000000000000000000, 1.224646799147353207E-16 ) ) ;
#5 = PLANE ( 'NONE',  #114 ) ;
#6 = CARTESIAN_POINT ( 'NONE',  ( 1.507849757329056092E-14, -5.291355260444894797E-16, 4.318653347947340571 ) ) ;
#7 = APPLICATION_CONTEXT ( 'configuration controlled 3d designs of mechanical parts and assemblies' ) ;
#8 = APPROVAL ( #222, 'UNSPECIFIED' ) ;
#9 = CARTESIAN_POINT ( 'NONE',  ( 1.507849757329056092E-14, -1.999999999999997113, 4.318653347947340571 ) ) ;
#10 = EDGE_CURVE ( 'NONE', #20, #20, #220, .T. ) ;
#11 =( NAMED_UNIT ( * ) SI_UNIT ( $, .STERADIAN. ) SOLID_ANGLE_UNIT ( ) );
#12 = AXIS2_PLACEMENT_3D ( 'NONE', #187, #120, #205 ) ;
#13 = DIRECTION ( 'NONE',  ( 0.0000000000000000000, 0.0000000000000000000, 1.000000000000000000 ) ) ;
#14 = CC_DESIGN_APPROVAL ( #8, ( #223 ) ) ;
#15 = EDGE_LOOP ( 'NONE', ( #62 ) ) ;
#16 = EDGE_CURVE ( 'NONE', #135, #135, #118, .T. ) ;
#17 = COORDINATED_UNIVERSAL_TIME_OFFSET ( 1, 0, .AHEAD. ) ;
#18 = ORIENTED_EDGE ( 'NONE', *, *, #149, .T. ) ;
#19 = CYLINDRICAL_SURFACE ( 'NONE', #175, 1.999999999999996669 ) ;
#20 = VERTEX_POINT ( 'NONE', #25 ) ;
#21 = DIRECTION ( 'NONE',  ( 3.491481338843133355E-15, -1.224646799147353207E-16, 1.000000000000000000 ) ) ;
#22 = PRODUCT_DEFINITION_SHAPE ( 'NONE', 'NONE',  #77 ) ;
#23 = AXIS2_PLACEMENT_3D ( 'NONE', #1, #137, #55 ) ;
#24 = DIRECTION ( 'NONE',  ( 3.491481338843133355E-15, -1.225232690407966814E-16, 1.000000000000000000 ) ) ;
#25 = CARTESIAN_POINT ( 'NONE',  ( 8.728703347107830233E-15, -0.9499999999999996225, 2.499999999999999112 ) ) ;
#26 = CC_DESIGN_PERSON_AND_ORGANIZATION_ASSIGNMENT ( #124, #141, ( #223 ) ) ;
#27 = AXIS2_PLACEMENT_3D ( 'NONE', #136, #57, #170 ) ;
#28 = PERSON_AND_ORGANIZATION ( #163, #76 ) ;
#29 = CARTESIAN_POINT ( 'NONE',  ( 8.728703347107830233E-15, -0.9499999999999996225, 2.499999999999999112 ) ) ;
#30 = APPROVAL_ROLE ( '' ) ;
#31 = LOCAL_TIME ( 13, 44, 15.00000000000000000, #17 ) ;
#32 = DATE_AND_TIME ( #127, #126 ) ;
#33 = FACE_BOUND ( 'NONE', #49, .T. ) ;
#34 = CLOSED_SHELL ( 'NONE', ( #171, #56, #159, #116, #111 ) ) ;
#35 = CARTESIAN_POINT ( 'NONE',  ( -2.025941305359930978E-30, 0.0000000000000000000, -5.802526517387047816E-16 ) ) ;
#36 = PLANE ( 'NONE',  #79 ) ;
#37 = PLANE ( 'NONE',  #190 ) ;
#38 = APPROVAL_PERSON_ORGANIZATION ( #158, #217, #30 ) ;
#39 = DIRECTION ( 'NONE',  ( -4.275831445896958607E-31, -1.000000000000000000, -1.224646799147353207E-16 ) ) ;
#40 = UNCERTAINTY_MEASURE_WITH_UNIT (LENGTH_MEASURE( 1.000000000000000082E-05 ), #194, 'distance_accuracy_value', 'NONE');
#41 = EDGE_CURVE ( 'NONE', #125, #125, #146, .T. ) ;
#42 = CALENDAR_DATE ( 2021, 8, 11 ) ;
#43 = PERSON_AND_ORGANIZATION_ROLE ( 'creator' ) ;
#44 = CIRCLE ( 'NONE', #23, 0.9499999999999994005 ) ;
#45 = PERSON_AND_ORGANIZATION ( #163, #76 ) ;
#46 = COORDINATED_UNIVERSAL_TIME_OFFSET ( 1, 0, .AHEAD. ) ;
#47 = AXIS2_PLACEMENT_3D ( 'NONE', #35, #102, #172 ) ;
#48 = CC_DESIGN_DATE_AND_TIME_ASSIGNMENT ( #32, #178, ( #223 ) ) ;
#49 = EDGE_LOOP ( 'NONE', ( #115 ) ) ;
#50 = APPROVAL_DATE_TIME ( #202, #8 ) ;
#51 = EDGE_LOOP ( 'NONE', ( #97 ) ) ;
#52 = DIRECTION ( 'NONE',  ( -3.491481338843133355E-15, 1.224646799147353207E-16, -1.000000000000000000 ) ) ;
#53 = FACE_OUTER_BOUND ( 'NONE', #112, .T. ) ;
#54 = DIRECTION ( 'NONE',  ( 0.0000000000000000000, 1.000000000000000000, 0.0000000000000000000 ) ) ;
#55 = DIRECTION ( 'NONE',  ( 0.0000000000000000000, -1.000000000000000000, 0.0000000000000000000 ) ) ;
#56 = ADVANCED_FACE ( 'NONE', ( #91, #33 ), #195, .T. ) ;
#57 = DIRECTION ( 'NONE',  ( 3.491481338843133355E-15, -1.225232690407966814E-16, 1.000000000000000000 ) ) ;
#58 = PERSON_AND_ORGANIZATION ( #163, #76 ) ;
#59 = AXIS2_PLACEMENT_3D ( 'NONE', #156, #210, #66 ) ;
#60 = APPLICATION_PROTOCOL_DEFINITION ( 'international standard', 'config_control_design', 1994, #191 ) ;
#61 = DATE_AND_TIME ( #213, #150 ) ;
#62 = ORIENTED_EDGE ( 'NONE', *, *, #10, .T. ) ;
#63 = ORIENTED_EDGE ( 'NONE', *, *, #10, .F. ) ;
#64 = EDGE_LOOP ( 'NONE', ( #182 ) ) ;
#65 = CC_DESIGN_SECURITY_CLASSIFICATION ( #223, ( #166 ) ) ;
#66 = DIRECTION ( 'NONE',  ( 0.0000000000000000000, -1.000000000000000000, 0.0000000000000000000 ) ) ;
#67 = CARTESIAN_POINT ( 'NONE',  ( 8.728703347107831810E-15, -1.084202172485506209E-15, 2.499999999999999556 ) ) ;
#68 = AXIS2_PLACEMENT_3D ( 'NONE', #6, #24, #119 ) ;
#69 = PRODUCT_RELATED_PRODUCT_CATEGORY ( 'detail', '', ( #209 ) ) ;
#70 = DIRECTION ( 'NONE',  ( 0.0000000000000000000, -1.000000000000000000, 0.0000000000000000000 ) ) ;
#71 = CC_DESIGN_PERSON_AND_ORGANIZATION_ASSIGNMENT ( #45, #216, ( #209 ) ) ;
#72 = DIRECTION ( 'NONE',  ( 4.275831445896958607E-31, 1.000000000000000000, 1.224646799147353207E-16 ) ) ;
#73 = DIRECTION ( 'NONE',  ( 0.0000000000000000000, 1.000000000000000000, 0.0000000000000000000 ) ) ;
#74 = COORDINATED_UNIVERSAL_TIME_OFFSET ( 1, 0, .AHEAD. ) ;
#75 = DATE_AND_TIME ( #42, #108 ) ;
#76 = ORGANIZATION ( 'UNSPECIFIED', 'UNSPECIFIED', '' ) ;
#77 = PRODUCT_DEFINITION ( 'UNKNOWN', '', #166, #173 ) ;
#78 = ORIENTED_EDGE ( 'NONE', *, *, #177, .F. ) ;
#79 = AXIS2_PLACEMENT_3D ( 'NONE', #100, #168, #188 ) ;
#80 = LOCAL_TIME ( 13, 44, 15.00000000000000000, #46 ) ;
#81 = ADVANCED_FACE ( 'NONE', ( #2 ), #36, .F. ) ;
#82 = SHAPE_DEFINITION_REPRESENTATION ( #22, #86 ) ;
#83 = EDGE_LOOP ( 'NONE', ( #132 ) ) ;
#84 = CC_DESIGN_PERSON_AND_ORGANIZATION_ASSIGNMENT ( #197, #43, ( #77 ) ) ;
#85 = FACE_OUTER_BOUND ( 'NONE', #201, .T. ) ;
#86 = ADVANCED_BREP_SHAPE_REPRESENTATION ( '960656', ( #200, #204, #90 ), #3 ) ;
#87 = FACE_OUTER_BOUND ( 'NONE', #199, .T. ) ;
#88 = DIRECTION ( 'NONE',  ( -3.491481338843133355E-15, 1.224646799147353207E-16, -1.000000000000000000 ) ) ;
#89 = EDGE_CURVE ( 'NONE', #196, #196, #139, .T. ) ;
#90 = AXIS2_PLACEMENT_3D ( 'NONE', #145, #13, #161 ) ;
#91 = FACE_OUTER_BOUND ( 'NONE', #51, .T. ) ;
#92 = CARTESIAN_POINT ( 'NONE',  ( 1.222018468595096801E-13, -4.286263797015736496E-15, 35.00000000000000000 ) ) ;
#93 = PERSON_AND_ORGANIZATION_ROLE ( 'design_supplier' ) ;
#94 = VERTEX_POINT ( 'NONE', #9 ) ;
#95 = CALENDAR_DATE ( 2021, 8, 11 ) ;
#96 = ORIENTED_EDGE ( 'NONE', *, *, #177, .T. ) ;
#97 = ORIENTED_EDGE ( 'NONE', *, *, #41, .F. ) ;
#98 = CALENDAR_DATE ( 2021, 8, 11 ) ;
#99 = CC_DESIGN_PERSON_AND_ORGANIZATION_ASSIGNMENT ( #106, #174, ( #166 ) ) ;
#100 = CARTESIAN_POINT ( 'NONE',  ( -8.551700045867646674E-31, 2.999532597218505004E-32, -2.449304239644358043E-16 ) ) ;
#101 = CIRCLE ( 'NONE', #133, 1.999999999999996669 ) ;
#102 = DIRECTION ( 'NONE',  ( 3.491481338843133355E-15, -1.225232690407966814E-16, 1.000000000000000000 ) ) ;
#103 = DIRECTION ( 'NONE',  ( -4.275831445896958607E-31, -1.000000000000000000, -1.224646799147353207E-16 ) ) ;
#104 = FACE_OUTER_BOUND ( 'NONE', #83, .T. ) ;
#105 = CYLINDRICAL_SURFACE ( 'NONE', #47, 0.9499999999999995115 ) ;
#106 = PERSON_AND_ORGANIZATION ( #163, #76 ) ;
#107 = COORDINATED_UNIVERSAL_TIME_OFFSET ( 1, 0, .AHEAD. ) ;
#108 = LOCAL_TIME ( 13, 44, 15.00000000000000000, #74 ) ;
#109 = APPROVAL_DATE_TIME ( #75, #155 ) ;
#110 = VERTEX_POINT ( 'NONE', #29 ) ;
#111 = ADVANCED_FACE ( 'NONE', ( #167 ), #37, .F. ) ;
#112 = EDGE_LOOP ( 'NONE', ( #147 ) ) ;
#113 = EDGE_LOOP ( 'NONE', ( #18 ) ) ;
#114 = AXIS2_PLACEMENT_3D ( 'NONE', #152, #52, #72 ) ;
#115 = ORIENTED_EDGE ( 'NONE', *, *, #89, .T. ) ;
#116 = ADVANCED_FACE ( 'NONE', ( #211, #104 ), #122, .T. ) ;
#117 = DIRECTION ( 'NONE',  ( -3.491481338843133355E-15, 1.224646799147353207E-16, -1.000000000000000000 ) ) ;
#118 = CIRCLE ( 'NONE', #27, 0.9499999999999996225 ) ;
#119 = DIRECTION ( 'NONE',  ( 0.0000000000000000000, -1.000000000000000000, 0.0000000000000000000 ) ) ;
#120 = DIRECTION ( 'NONE',  ( -3.491481338843133355E-15, 1.224646799147353207E-16, -1.000000000000000000 ) ) ;
#121 = PLANE ( 'NONE',  #206 ) ;
#122 = CONICAL_SURFACE ( 'NONE', #68, 1.999999999999996669, 0.5235987755982928205 ) ;
#123 = APPROVAL_ROLE ( '' ) ;
#124 = PERSON_AND_ORGANIZATION ( #163, #76 ) ;
#125 = VERTEX_POINT ( 'NONE', #193 ) ;
#126 = LOCAL_TIME ( 13, 44, 15.00000000000000000, #214 ) ;
#127 = CALENDAR_DATE ( 2021, 8, 11 ) ;
#128 = APPROVAL_STATUS ( 'not_yet_approved' ) ;
#129 = APPROVAL_PERSON_ORGANIZATION ( #28, #155, #123 ) ;
#130 = EDGE_LOOP ( 'NONE', ( #78 ) ) ;
#131 = CC_DESIGN_DATE_AND_TIME_ASSIGNMENT ( #192, #212, ( #77 ) ) ;
#132 = ORIENTED_EDGE ( 'NONE', *, *, #149, .F. ) ;
#133 = AXIS2_PLACEMENT_3D ( 'NONE', #138, #154, #70 ) ;
#134 = CARTESIAN_POINT ( 'NONE',  ( 1.208052543239724267E-13, -4.237277925049843068E-15, 34.60000000000000853 ) ) ;
#135 = VERTEX_POINT ( 'NONE', #207 ) ;
#136 = CARTESIAN_POINT ( 'NONE',  ( -4.063983220584981783E-31, -5.683309787699575054E-32, -1.163971055887567783E-16 ) ) ;
#137 = DIRECTION ( 'NONE',  ( 3.491481338843133355E-15, -1.225232690407966814E-16, 1.000000000000000000 ) ) ;
#138 = CARTESIAN_POINT ( 'NONE',  ( 1.507849757329056092E-14, -5.291355260444894797E-16, 4.318653347947340571 ) ) ;
#139 = CIRCLE ( 'NONE', #143, 1.599999999999998312 ) ;
#140 = APPLICATION_PROTOCOL_DEFINITION ( 'international standard', 'config_control_design', 1994, #7 ) ;
#141 = PERSON_AND_ORGANIZATION_ROLE ( 'classification_officer' ) ;
#142 = MECHANICAL_CONTEXT ( 'NONE', #7, 'mechanical' ) ;
#143 = AXIS2_PLACEMENT_3D ( 'NONE', #92, #117, #73 ) ;
#144 = CARTESIAN_POINT ( 'NONE',  ( 1.222018468595096801E-13, 1.599999999999994094, 35.00000000000000000 ) ) ;
#145 = CARTESIAN_POINT ( 'NONE',  ( 0.0000000000000000000, 0.0000000000000000000, 0.0000000000000000000 ) ) ;
#146 = CIRCLE ( 'NONE', #215, 1.999999999999998224 ) ;
#147 = ORIENTED_EDGE ( 'NONE', *, *, #89, .F. ) ;
#148 = PERSON_AND_ORGANIZATION ( #163, #76 ) ;
#149 = EDGE_CURVE ( 'NONE', #94, #94, #101, .T. ) ;
#150 = LOCAL_TIME ( 13, 44, 15.00000000000000000, #107 ) ;
#151 = FACE_OUTER_BOUND ( 'NONE', #113, .T. ) ;
#152 = CARTESIAN_POINT ( 'NONE',  ( 1.222018468595096801E-13, 1.199807826129478286E-32, 35.00000000000000000 ) ) ;
#153 = CARTESIAN_POINT ( 'NONE',  ( 8.728703347107831810E-15, -1.084202172485506209E-15, 2.499999999999999556 ) ) ;
#154 = DIRECTION ( 'NONE',  ( 3.491481338843133355E-15, -1.225232690407966814E-16, 1.000000000000000000 ) ) ;
#155 = APPROVAL ( #218, 'UNSPECIFIED' ) ;
#156 = CARTESIAN_POINT ( 'NONE',  ( 8.728703347107830233E-15, -3.063081726019916542E-16, 2.499999999999999112 ) ) ;
#157 = SECURITY_CLASSIFICATION_LEVEL ( 'unclassified' ) ;
#158 = PERSON_AND_ORGANIZATION ( #163, #76 ) ;
#159 = ADVANCED_FACE ( 'NONE', ( #53 ), #5, .F. ) ;
#160 = APPROVAL_DATE_TIME ( #61, #217 ) ;
#161 = DIRECTION ( 'NONE',  ( 1.000000000000000000, 0.0000000000000000000, 0.0000000000000000000 ) ) ;
#162 = CC_DESIGN_APPROVAL ( #217, ( #77 ) ) ;
#163 = PERSON ( 'UNSPECIFIED', 'UNSPECIFIED', 'UNSPECIFIED', ('UNSPECIFIED'), ('UNSPECIFIED'), ('UNSPECIFIED') ) ;
#164 = CC_DESIGN_APPROVAL ( #155, ( #166 ) ) ;
#165 = EDGE_LOOP ( 'NONE', ( #96 ) ) ;
#166 = PRODUCT_DEFINITION_FORMATION_WITH_SPECIFIED_SOURCE ( 'ANY', '', #209, .NOT_KNOWN. ) ;
#167 = FACE_OUTER_BOUND ( 'NONE', #221, .T. ) ;
#168 = DIRECTION ( 'NONE',  ( 3.491481338843133355E-15, -1.224646799147353207E-16, 1.000000000000000000 ) ) ;
#169 = FACE_OUTER_BOUND ( 'NONE', #165, .T. ) ;
#170 = DIRECTION ( 'NONE',  ( -4.277877074299982760E-31, -1.000000000000000000, -1.225232690407966567E-16 ) ) ;
#171 = ADVANCED_FACE ( 'NONE', ( #85, #151 ), #19, .T. ) ;
#172 = DIRECTION ( 'NONE',  ( -4.277877074299981884E-31, -1.000000000000000000, -1.225232690407966814E-16 ) ) ;
#173 = DESIGN_CONTEXT ( 'detailed design', #191, 'design' ) ;
#174 = PERSON_AND_ORGANIZATION_ROLE ( 'creator' ) ;
#175 = AXIS2_PLACEMENT_3D ( 'NONE', #208, #183, #4 ) ;
#176 =( NAMED_UNIT ( * ) PLANE_ANGLE_UNIT ( ) SI_UNIT ( $, .RADIAN. ) );
#177 = EDGE_CURVE ( 'NONE', #110, #110, #44, .T. ) ;
#178 = DATE_TIME_ROLE ( 'classification_date' ) ;
#179 = CC_DESIGN_PERSON_AND_ORGANIZATION_ASSIGNMENT ( #58, #93, ( #166 ) ) ;
#180 = ORIENTED_EDGE ( 'NONE', *, *, #16, .T. ) ;
#181 = APPROVAL_PERSON_ORGANIZATION ( #148, #8, #219 ) ;
#182 = ORIENTED_EDGE ( 'NONE', *, *, #16, .F. ) ;
#183 = DIRECTION ( 'NONE',  ( -3.491481338843133355E-15, 1.224646799147353207E-16, -1.000000000000000000 ) ) ;
#184 = ADVANCED_FACE ( 'NONE', ( #169 ), #121, .T. ) ;
#185 = CLOSED_SHELL ( 'NONE', ( #184, #198, #81 ) ) ;
#186 = FACE_OUTER_BOUND ( 'NONE', #130, .T. ) ;
#187 = CARTESIAN_POINT ( 'NONE',  ( 1.222018468595096801E-13, -4.286263797015736496E-15, 35.00000000000000000 ) ) ;
#188 = DIRECTION ( 'NONE',  ( -4.275831445896958607E-31, -1.000000000000000000, -1.224646799147353207E-16 ) ) ;
#189 = DIRECTION ( 'NONE',  ( 3.491481338843133355E-15, -1.224646799147353207E-16, 1.000000000000000000 ) ) ;
#190 = AXIS2_PLACEMENT_3D ( 'NONE', #67, #21, #103 ) ;
#191 = APPLICATION_CONTEXT ( 'configuration controlled 3d designs of mechanical parts and assemblies' ) ;
#192 = DATE_AND_TIME ( #95, #80 ) ;
#193 = CARTESIAN_POINT ( 'NONE',  ( 1.208052543239724267E-13, 1.999999999999994005, 34.60000000000000853 ) ) ;
#194 =( LENGTH_UNIT ( ) NAMED_UNIT ( * ) SI_UNIT ( .MILLI., .METRE. ) );
#195 = CONICAL_SURFACE ( 'NONE', #12, 1.599999999999998312, 0.7853981633974512766 ) ;
#196 = VERTEX_POINT ( 'NONE', #144 ) ;
#197 = PERSON_AND_ORGANIZATION ( #163, #76 ) ;
#198 = ADVANCED_FACE ( 'NONE', ( #87, #186 ), #105, .T. ) ;
#199 = EDGE_LOOP ( 'NONE', ( #180 ) ) ;
#200 = MANIFOLD_SOLID_BREP ( 'Corps-Déplacer/Copier1[1]', #34 ) ;
#201 = EDGE_LOOP ( 'NONE', ( #203 ) ) ;
#202 = DATE_AND_TIME ( #98, #31 ) ;
#203 = ORIENTED_EDGE ( 'NONE', *, *, #41, .T. ) ;
#204 = MANIFOLD_SOLID_BREP ( 'Corps-Déplacer/Copier1[2]', #185 ) ;
#205 = DIRECTION ( 'NONE',  ( 0.0000000000000000000, 1.000000000000000000, 0.0000000000000000000 ) ) ;
#206 = AXIS2_PLACEMENT_3D ( 'NONE', #153, #189, #39 ) ;
#207 = CARTESIAN_POINT ( 'NONE',  ( -8.127966441169963565E-31, -0.9499999999999996225, -2.327942111775135566E-16 ) ) ;
#208 = CARTESIAN_POINT ( 'NONE',  ( 0.0000000000000000000, 0.0000000000000000000, 0.0000000000000000000 ) ) ;
#209 = PRODUCT ( '960656', '960656', '', ( #142 ) ) ;
#210 = DIRECTION ( 'NONE',  ( 3.491481338843133355E-15, -1.225232690407966814E-16, 1.000000000000000000 ) ) ;
#211 = FACE_BOUND ( 'NONE', #15, .T. ) ;
#212 = DATE_TIME_ROLE ( 'creation_date' ) ;
#213 = CALENDAR_DATE ( 2021, 8, 11 ) ;
#214 = COORDINATED_UNIVERSAL_TIME_OFFSET ( 1, 0, .AHEAD. ) ;
#215 = AXIS2_PLACEMENT_3D ( 'NONE', #134, #88, #54 ) ;
#216 = PERSON_AND_ORGANIZATION_ROLE ( 'design_owner' ) ;
#217 = APPROVAL ( #128, 'UNSPECIFIED' ) ;
#218 = APPROVAL_STATUS ( 'not_yet_approved' ) ;
#219 = APPROVAL_ROLE ( '' ) ;
#220 = CIRCLE ( 'NONE', #59, 0.9499999999999994005 ) ;
#221 = EDGE_LOOP ( 'NONE', ( #63 ) ) ;
#222 = APPROVAL_STATUS ( 'not_yet_approved' ) ;
#223 = SECURITY_CLASSIFICATION ( '', '', #157 ) ;
ENDSEC;
END-ISO-10303-21;
