ISO-10303-21;
HEADER;
FILE_DESCRIPTION (( 'STEP AP203' ),
    '1' );
FILE_NAME ('960655.step',
    '2021-11-08T12:44:15',
    ( '' ),
    ( '' ),
    'SwSTEP 2.0',
    'SolidWorks 2019',
    '' );
FILE_SCHEMA (( 'CONFIG_CONTROL_DESIGN' ));
ENDSEC;

DATA;
#1 = APPROVAL ( #208, 'UNSPECIFIED' ) ;
#2 = CARTESIAN_POINT ( 'NONE',  ( -2.025941305359930978E-30, 0.0000000000000000000, -5.802526517387047816E-16 ) ) ;
#3 = EDGE_LOOP ( 'NONE', ( #197 ) ) ;
#4 = CIRCLE ( 'NONE', #110, 1.999999999999996669 ) ;
#5 = EDGE_LOOP ( 'NONE', ( #139 ) ) ;
#6 = CC_DESIGN_PERSON_AND_ORGANIZATION_ASSIGNMENT ( #103, #173, ( #117 ) ) ;
#7 = UNCERTAINTY_MEASURE_WITH_UNIT (LENGTH_MEASURE( 1.000000000000000082E-05 ), #17, 'distance_accuracy_value', 'NONE');
#8 = DIRECTION ( 'NONE',  ( 0.0000000000000000000, -1.000000000000000000, 0.0000000000000000000 ) ) ;
#9 = CARTESIAN_POINT ( 'NONE',  ( 1.538086872691830820E-14, -5.397463523988941732E-16, 4.405255888325785740 ) ) ;
#10 = CC_DESIGN_PERSON_AND_ORGANIZATION_ASSIGNMENT ( #51, #86, ( #149 ) ) ;
#11 = CARTESIAN_POINT ( 'NONE',  ( 8.728703347107830233E-15, -3.063081726019916542E-16, 2.499999999999999112 ) ) ;
#12 = FACE_OUTER_BOUND ( 'NONE', #5, .T. ) ;
#13 = CARTESIAN_POINT ( 'NONE',  ( 8.728703347107831810E-15, -1.084202172485506209E-15, 2.499999999999999556 ) ) ;
#14 = LOCAL_TIME ( 13, 44, 15.00000000000000000, #191 ) ;
#15 = AXIS2_PLACEMENT_3D ( 'NONE', #128, #199, #145 ) ;
#16 = APPROVAL_ROLE ( '' ) ;
#17 =( LENGTH_UNIT ( ) NAMED_UNIT ( * ) SI_UNIT ( .MILLI., .METRE. ) );
#18 = AXIS2_PLACEMENT_3D ( 'NONE', #134, #48, #132 ) ;
#19 = MECHANICAL_CONTEXT ( 'NONE', #192, 'mechanical' ) ;
#20 = MANIFOLD_SOLID_BREP ( 'Corps-Déplacer/Copier1[2]', #193 ) ;
#21 = CONICAL_SURFACE ( 'NONE', #53, 1.999999999999996669, 0.5235987755982927094 ) ;
#22 = FACE_OUTER_BOUND ( 'NONE', #179, .T. ) ;
#23 = ADVANCED_FACE ( 'NONE', ( #125, #22 ), #156, .T. ) ;
#24 = ORIENTED_EDGE ( 'NONE', *, *, #165, .T. ) ;
#25 = AXIS2_PLACEMENT_3D ( 'NONE', #78, #99, #143 ) ;
#26 = LOCAL_TIME ( 13, 44, 15.00000000000000000, #151 ) ;
#27 = EDGE_LOOP ( 'NONE', ( #108 ) ) ;
#28 = DIRECTION ( 'NONE',  ( -4.277877074299981884E-31, -1.000000000000000000, -1.225232690407966567E-16 ) ) ;
#29 = CARTESIAN_POINT ( 'NONE',  ( 8.728703347107830233E-15, -0.9000000000000000222, 2.499999999999999112 ) ) ;
#30 = APPROVAL_PERSON_ORGANIZATION ( #138, #1, #88 ) ;
#31 = DIRECTION ( 'NONE',  ( -3.491481338843133355E-15, 1.224646799147353207E-16, -1.000000000000000000 ) ) ;
#32 = PLANE ( 'NONE',  #25 ) ;
#33 = AXIS2_PLACEMENT_3D ( 'NONE', #116, #44, #64 ) ;
#34 = DATE_AND_TIME ( #189, #26 ) ;
#35 = SECURITY_CLASSIFICATION_LEVEL ( 'unclassified' ) ;
#36 = PRODUCT_DEFINITION_SHAPE ( 'NONE', 'NONE',  #104 ) ;
#37 = AXIS2_PLACEMENT_3D ( 'NONE', #161, #166, #8 ) ;
#38 = CC_DESIGN_APPROVAL ( #89, ( #104 ) ) ;
#39 = CC_DESIGN_SECURITY_CLASSIFICATION ( #117, ( #149 ) ) ;
#40 = ORIENTED_EDGE ( 'NONE', *, *, #165, .F. ) ;
#41 = ADVANCED_FACE ( 'NONE', ( #42 ), #147, .F. ) ;
#42 = FACE_OUTER_BOUND ( 'NONE', #212, .T. ) ;
#43 = CYLINDRICAL_SURFACE ( 'NONE', #18, 1.999999999999996669 ) ;
#44 = DIRECTION ( 'NONE',  ( 3.491481338843133355E-15, -1.224646799147353207E-16, 1.000000000000000000 ) ) ;
#45 = AXIS2_PLACEMENT_3D ( 'NONE', #204, #180, #28 ) ;
#46 = DIRECTION ( 'NONE',  ( 0.0000000000000000000, -1.000000000000000000, 0.0000000000000000000 ) ) ;
#47 = ADVANCED_FACE ( 'NONE', ( #164, #96 ), #21, .T. ) ;
#48 = DIRECTION ( 'NONE',  ( -3.491481338843133355E-15, 1.224646799147353207E-16, -1.000000000000000000 ) ) ;
#49 = DIRECTION ( 'NONE',  ( 1.000000000000000000, 0.0000000000000000000, 0.0000000000000000000 ) ) ;
#50 = CC_DESIGN_PERSON_AND_ORGANIZATION_ASSIGNMENT ( #137, #136, ( #104 ) ) ;
#51 = PERSON_AND_ORGANIZATION ( #62, #54 ) ;
#52 = DATE_AND_TIME ( #101, #176 ) ;
#53 = AXIS2_PLACEMENT_3D ( 'NONE', #82, #218, #46 ) ;
#54 = ORGANIZATION ( 'UNSPECIFIED', 'UNSPECIFIED', '' ) ;
#55 = PERSON_AND_ORGANIZATION_ROLE ( 'design_owner' ) ;
#56 = ORIENTED_EDGE ( 'NONE', *, *, #157, .T. ) ;
#57 = DIRECTION ( 'NONE',  ( 3.491481338843133355E-15, -1.225232690407966814E-16, 1.000000000000000000 ) ) ;
#58 = CC_DESIGN_PERSON_AND_ORGANIZATION_ASSIGNMENT ( #135, #55, ( #170 ) ) ;
#59 = EDGE_LOOP ( 'NONE', ( #198 ) ) ;
#60 = FACE_OUTER_BOUND ( 'NONE', #59, .T. ) ;
#61 = VERTEX_POINT ( 'NONE', #217 ) ;
#62 = PERSON ( 'UNSPECIFIED', 'UNSPECIFIED', 'UNSPECIFIED', ('UNSPECIFIED'), ('UNSPECIFIED'), ('UNSPECIFIED') ) ;
#63 = VERTEX_POINT ( 'NONE', #130 ) ;
#64 = DIRECTION ( 'NONE',  ( -4.275831445896958607E-31, -1.000000000000000000, -1.224646799147353207E-16 ) ) ;
#65 = AXIS2_PLACEMENT_3D ( 'NONE', #216, #76, #95 ) ;
#66 = DIRECTION ( 'NONE',  ( 0.0000000000000000000, 1.000000000000000000, 0.0000000000000000000 ) ) ;
#67 = ADVANCED_FACE ( 'NONE', ( #215 ), #148, .T. ) ;
#68 = DATE_AND_TIME ( #168, #219 ) ;
#69 = AXIS2_PLACEMENT_3D ( 'NONE', #2, #57, #178 ) ;
#70 = APPROVAL_DATE_TIME ( #52, #209 ) ;
#71 = DATE_TIME_ROLE ( 'classification_date' ) ;
#72 = EDGE_CURVE ( 'NONE', #61, #61, #153, .T. ) ;
#73 = AXIS2_PLACEMENT_3D ( 'NONE', #11, #94, #98 ) ;
#74 = CALENDAR_DATE ( 2021, 8, 11 ) ;
#75 = EDGE_LOOP ( 'NONE', ( #24 ) ) ;
#76 = DIRECTION ( 'NONE',  ( -3.491481338843133355E-15, 1.224646799147353207E-16, -1.000000000000000000 ) ) ;
#77 = APPLICATION_CONTEXT ( 'configuration controlled 3d designs of mechanical parts and assemblies' ) ;
#78 = CARTESIAN_POINT ( 'NONE',  ( -8.551700045867646674E-31, 2.999532597218505004E-32, -2.449304239644358043E-16 ) ) ;
#79 = AXIS2_PLACEMENT_3D ( 'NONE', #203, #115, #186 ) ;
#80 = FACE_BOUND ( 'NONE', #27, .T. ) ;
#81 = DIRECTION ( 'NONE',  ( 3.491481338843133355E-15, -1.224646799147353207E-16, 1.000000000000000000 ) ) ;
#82 = CARTESIAN_POINT ( 'NONE',  ( 1.538086872691830820E-14, -5.397463523988941732E-16, 4.405255888325785740 ) ) ;
#83 =( GEOMETRIC_REPRESENTATION_CONTEXT ( 3 ) GLOBAL_UNCERTAINTY_ASSIGNED_CONTEXT ( ( #7 ) ) GLOBAL_UNIT_ASSIGNED_CONTEXT ( ( #17, #205, #220 ) ) REPRESENTATION_CONTEXT ( 'NONE', 'WORKASPACE' ) );
#84 = CARTESIAN_POINT ( 'NONE',  ( 1.538086872691830820E-14, -1.999999999999997113, 4.405255888325785740 ) ) ;
#85 = CC_DESIGN_DATE_AND_TIME_ASSIGNMENT ( #222, #71, ( #117 ) ) ;
#86 = PERSON_AND_ORGANIZATION_ROLE ( 'design_supplier' ) ;
#87 = PERSON_AND_ORGANIZATION ( #62, #54 ) ;
#88 = APPROVAL_ROLE ( '' ) ;
#89 = APPROVAL ( #124, 'UNSPECIFIED' ) ;
#90 = EDGE_LOOP ( 'NONE', ( #93 ) ) ;
#91 = CC_DESIGN_APPROVAL ( #209, ( #149 ) ) ;
#92 = AXIS2_PLACEMENT_3D ( 'NONE', #100, #223, #49 ) ;
#93 = ORIENTED_EDGE ( 'NONE', *, *, #171, .F. ) ;
#94 = DIRECTION ( 'NONE',  ( 3.491481338843133355E-15, -1.225232690407966814E-16, 1.000000000000000000 ) ) ;
#95 = DIRECTION ( 'NONE',  ( 0.0000000000000000000, 1.000000000000000000, 0.0000000000000000000 ) ) ;
#96 = FACE_OUTER_BOUND ( 'NONE', #90, .T. ) ;
#97 = ADVANCED_FACE ( 'NONE', ( #201, #183 ), #43, .T. ) ;
#98 = DIRECTION ( 'NONE',  ( 0.0000000000000000000, -1.000000000000000000, 0.0000000000000000000 ) ) ;
#99 = DIRECTION ( 'NONE',  ( 3.491481338843133355E-15, -1.224646799147353207E-16, 1.000000000000000000 ) ) ;
#100 = CARTESIAN_POINT ( 'NONE',  ( 0.0000000000000000000, 0.0000000000000000000, 0.0000000000000000000 ) ) ;
#101 = CALENDAR_DATE ( 2021, 8, 11 ) ;
#102 = DATE_TIME_ROLE ( 'creation_date' ) ;
#103 = PERSON_AND_ORGANIZATION ( #62, #54 ) ;
#104 = PRODUCT_DEFINITION ( 'UNKNOWN', '', #149, #133 ) ;
#105 = ORIENTED_EDGE ( 'NONE', *, *, #106, .F. ) ;
#106 = EDGE_CURVE ( 'NONE', #129, #129, #144, .T. ) ;
#107 = ORIENTED_EDGE ( 'NONE', *, *, #184, .T. ) ;
#108 = ORIENTED_EDGE ( 'NONE', *, *, #72, .T. ) ;
#109 = LOCAL_TIME ( 13, 44, 15.00000000000000000, #196 ) ;
#110 = AXIS2_PLACEMENT_3D ( 'NONE', #9, #181, #185 ) ;
#111 = EDGE_LOOP ( 'NONE', ( #105 ) ) ;
#112 = CARTESIAN_POINT ( 'NONE',  ( 1.222018468595096801E-13, -4.286263797015736496E-15, 35.00000000000000000 ) ) ;
#113 = VERTEX_POINT ( 'NONE', #29 ) ;
#114 = CC_DESIGN_APPROVAL ( #1, ( #117 ) ) ;
#115 = DIRECTION ( 'NONE',  ( -3.491481338843133355E-15, 1.224646799147353207E-16, -1.000000000000000000 ) ) ;
#116 = CARTESIAN_POINT ( 'NONE',  ( 8.728703347107831810E-15, -1.084202172485506209E-15, 2.499999999999999556 ) ) ;
#117 = SECURITY_CLASSIFICATION ( '', '', #35 ) ;
#118 = APPLICATION_PROTOCOL_DEFINITION ( 'international standard', 'config_control_design', 1994, #192 ) ;
#119 = AXIS2_PLACEMENT_3D ( 'NONE', #13, #81, #163 ) ;
#120 = APPLICATION_PROTOCOL_DEFINITION ( 'international standard', 'config_control_design', 1994, #77 ) ;
#121 = PERSON_AND_ORGANIZATION_ROLE ( 'creator' ) ;
#122 = ADVANCED_FACE ( 'NONE', ( #12, #80 ), #211, .T. ) ;
#123 = APPROVAL_PERSON_ORGANIZATION ( #87, #89, #188 ) ;
#124 = APPROVAL_STATUS ( 'not_yet_approved' ) ;
#125 = FACE_OUTER_BOUND ( 'NONE', #3, .T. ) ;
#126 = ORIENTED_EDGE ( 'NONE', *, *, #171, .T. ) ;
#127 = CC_DESIGN_PERSON_AND_ORGANIZATION_ASSIGNMENT ( #169, #121, ( #149 ) ) ;
#128 = CARTESIAN_POINT ( 'NONE',  ( 1.222018468595096801E-13, 1.199807826129478286E-32, 35.00000000000000000 ) ) ;
#129 = VERTEX_POINT ( 'NONE', #200 ) ;
#130 = CARTESIAN_POINT ( 'NONE',  ( 8.728703347107830233E-15, -0.9000000000000000222, 2.499999999999999112 ) ) ;
#131 = CIRCLE ( 'NONE', #65, 1.999999999999998224 ) ;
#132 = DIRECTION ( 'NONE',  ( 4.275831445896958607E-31, 1.000000000000000000, 1.224646799147353207E-16 ) ) ;
#133 = DESIGN_CONTEXT ( 'detailed design', #77, 'design' ) ;
#134 = CARTESIAN_POINT ( 'NONE',  ( 0.0000000000000000000, 0.0000000000000000000, 0.0000000000000000000 ) ) ;
#135 = PERSON_AND_ORGANIZATION ( #62, #54 ) ;
#136 = PERSON_AND_ORGANIZATION_ROLE ( 'creator' ) ;
#137 = PERSON_AND_ORGANIZATION ( #62, #54 ) ;
#138 = PERSON_AND_ORGANIZATION ( #62, #54 ) ;
#139 = ORIENTED_EDGE ( 'NONE', *, *, #184, .F. ) ;
#140 = DATE_AND_TIME ( #74, #109 ) ;
#141 = PRODUCT_RELATED_PRODUCT_CATEGORY ( 'detail', '', ( #170 ) ) ;
#142 = EDGE_LOOP ( 'NONE', ( #107 ) ) ;
#143 = DIRECTION ( 'NONE',  ( -4.275831445896958607E-31, -1.000000000000000000, -1.224646799147353207E-16 ) ) ;
#144 = CIRCLE ( 'NONE', #45, 0.8999999999999996891 ) ;
#145 = DIRECTION ( 'NONE',  ( 4.275831445896958607E-31, 1.000000000000000000, 1.224646799147353207E-16 ) ) ;
#146 = PLANE ( 'NONE',  #15 ) ;
#147 = PLANE ( 'NONE',  #119 ) ;
#148 = PLANE ( 'NONE',  #33 ) ;
#149 = PRODUCT_DEFINITION_FORMATION_WITH_SPECIFIED_SOURCE ( 'ANY', '', #170, .NOT_KNOWN. ) ;
#150 = CC_DESIGN_DATE_AND_TIME_ASSIGNMENT ( #34, #102, ( #104 ) ) ;
#151 = COORDINATED_UNIVERSAL_TIME_OFFSET ( 1, 0, .AHEAD. ) ;
#152 = VERTEX_POINT ( 'NONE', #84 ) ;
#153 = CIRCLE ( 'NONE', #155, 1.599999999999998312 ) ;
#154 = CALENDAR_DATE ( 2021, 8, 11 ) ;
#155 = AXIS2_PLACEMENT_3D ( 'NONE', #112, #31, #66 ) ;
#156 = CYLINDRICAL_SURFACE ( 'NONE', #69, 0.8999999999999996891 ) ;
#157 = EDGE_CURVE ( 'NONE', #113, #113, #174, .T. ) ;
#158 = APPROVAL_DATE_TIME ( #140, #1 ) ;
#159 = APPROVAL_PERSON_ORGANIZATION ( #172, #209, #16 ) ;
#160 = EDGE_LOOP ( 'NONE', ( #56 ) ) ;
#161 = CARTESIAN_POINT ( 'NONE',  ( 8.728703347107830233E-15, -3.063081726019916542E-16, 2.499999999999999112 ) ) ;
#162 = FACE_OUTER_BOUND ( 'NONE', #111, .T. ) ;
#163 = DIRECTION ( 'NONE',  ( -4.275831445896958607E-31, -1.000000000000000000, -1.224646799147353207E-16 ) ) ;
#164 = FACE_BOUND ( 'NONE', #75, .T. ) ;
#165 = EDGE_CURVE ( 'NONE', #63, #63, #202, .T. ) ;
#166 = DIRECTION ( 'NONE',  ( 3.491481338843133355E-15, -1.225232690407966814E-16, 1.000000000000000000 ) ) ;
#167 = MANIFOLD_SOLID_BREP ( 'Corps-Déplacer/Copier1[1]', #187 ) ;
#168 = CALENDAR_DATE ( 2021, 8, 11 ) ;
#169 = PERSON_AND_ORGANIZATION ( #62, #54 ) ;
#170 = PRODUCT ( '960655', '960655', '', ( #19 ) ) ;
#171 = EDGE_CURVE ( 'NONE', #152, #152, #4, .T. ) ;
#172 = PERSON_AND_ORGANIZATION ( #62, #54 ) ;
#173 = PERSON_AND_ORGANIZATION_ROLE ( 'classification_officer' ) ;
#174 = CIRCLE ( 'NONE', #73, 0.8999999999999996891 ) ;
#175 = COORDINATED_UNIVERSAL_TIME_OFFSET ( 1, 0, .AHEAD. ) ;
#176 = LOCAL_TIME ( 13, 44, 15.00000000000000000, #190 ) ;
#177 = ORIENTED_EDGE ( 'NONE', *, *, #157, .F. ) ;
#178 = DIRECTION ( 'NONE',  ( -4.277877074299982760E-31, -1.000000000000000000, -1.225232690407966074E-16 ) ) ;
#179 = EDGE_LOOP ( 'NONE', ( #177 ) ) ;
#180 = DIRECTION ( 'NONE',  ( 3.491481338843133355E-15, -1.225232690407966814E-16, 1.000000000000000000 ) ) ;
#181 = DIRECTION ( 'NONE',  ( 3.491481338843133355E-15, -1.225232690407966814E-16, 1.000000000000000000 ) ) ;
#182 = ADVANCED_BREP_SHAPE_REPRESENTATION ( '960655', ( #167, #20, #92 ), #83 ) ;
#183 = FACE_OUTER_BOUND ( 'NONE', #214, .T. ) ;
#184 = EDGE_CURVE ( 'NONE', #210, #210, #131, .T. ) ;
#185 = DIRECTION ( 'NONE',  ( 0.0000000000000000000, -1.000000000000000000, 0.0000000000000000000 ) ) ;
#186 = DIRECTION ( 'NONE',  ( 0.0000000000000000000, 1.000000000000000000, 0.0000000000000000000 ) ) ;
#187 = CLOSED_SHELL ( 'NONE', ( #97, #122, #213, #47, #41 ) ) ;
#188 = APPROVAL_ROLE ( '' ) ;
#189 = CALENDAR_DATE ( 2021, 8, 11 ) ;
#190 = COORDINATED_UNIVERSAL_TIME_OFFSET ( 1, 0, .AHEAD. ) ;
#191 = COORDINATED_UNIVERSAL_TIME_OFFSET ( 1, 0, .AHEAD. ) ;
#192 = APPLICATION_CONTEXT ( 'configuration controlled 3d designs of mechanical parts and assemblies' ) ;
#193 = CLOSED_SHELL ( 'NONE', ( #67, #23, #194 ) ) ;
#194 = ADVANCED_FACE ( 'NONE', ( #162 ), #32, .F. ) ;
#195 = SHAPE_DEFINITION_REPRESENTATION ( #36, #182 ) ;
#196 = COORDINATED_UNIVERSAL_TIME_OFFSET ( 1, 0, .AHEAD. ) ;
#197 = ORIENTED_EDGE ( 'NONE', *, *, #106, .T. ) ;
#198 = ORIENTED_EDGE ( 'NONE', *, *, #72, .F. ) ;
#199 = DIRECTION ( 'NONE',  ( -3.491481338843133355E-15, 1.224646799147353207E-16, -1.000000000000000000 ) ) ;
#200 = CARTESIAN_POINT ( 'NONE',  ( -7.700178733739963362E-31, -0.8999999999999996891, -2.205418842734338737E-16 ) ) ;
#201 = FACE_OUTER_BOUND ( 'NONE', #142, .T. ) ;
#202 = CIRCLE ( 'NONE', #37, 0.8999999999999996891 ) ;
#203 = CARTESIAN_POINT ( 'NONE',  ( 1.222018468595096801E-13, -4.286263797015736496E-15, 35.00000000000000000 ) ) ;
#204 = CARTESIAN_POINT ( 'NONE',  ( -3.850089366869980805E-31, -5.758369544981793485E-32, -1.102709421367169122E-16 ) ) ;
#205 =( NAMED_UNIT ( * ) PLANE_ANGLE_UNIT ( ) SI_UNIT ( $, .RADIAN. ) );
#206 = CARTESIAN_POINT ( 'NONE',  ( 1.208052543239724267E-13, 1.999999999999994005, 34.60000000000000853 ) ) ;
#207 = APPROVAL_DATE_TIME ( #68, #89 ) ;
#208 = APPROVAL_STATUS ( 'not_yet_approved' ) ;
#209 = APPROVAL ( #221, 'UNSPECIFIED' ) ;
#210 = VERTEX_POINT ( 'NONE', #206 ) ;
#211 = CONICAL_SURFACE ( 'NONE', #79, 1.599999999999998312, 0.7853981633974512766 ) ;
#212 = EDGE_LOOP ( 'NONE', ( #40 ) ) ;
#213 = ADVANCED_FACE ( 'NONE', ( #60 ), #146, .F. ) ;
#214 = EDGE_LOOP ( 'NONE', ( #126 ) ) ;
#215 = FACE_OUTER_BOUND ( 'NONE', #160, .T. ) ;
#216 = CARTESIAN_POINT ( 'NONE',  ( 1.208052543239724267E-13, -4.237277925049843068E-15, 34.60000000000000853 ) ) ;
#217 = CARTESIAN_POINT ( 'NONE',  ( 1.222018468595096801E-13, 1.599999999999994094, 35.00000000000000000 ) ) ;
#218 = DIRECTION ( 'NONE',  ( 3.491481338843133355E-15, -1.225232690407966814E-16, 1.000000000000000000 ) ) ;
#219 = LOCAL_TIME ( 13, 44, 15.00000000000000000, #175 ) ;
#220 =( NAMED_UNIT ( * ) SI_UNIT ( $, .STERADIAN. ) SOLID_ANGLE_UNIT ( ) );
#221 = APPROVAL_STATUS ( 'not_yet_approved' ) ;
#222 = DATE_AND_TIME ( #154, #14 ) ;
#223 = DIRECTION ( 'NONE',  ( 0.0000000000000000000, 0.0000000000000000000, 1.000000000000000000 ) ) ;
ENDSEC;
END-ISO-10303-21;
