ISO-10303-21;
HEADER;
FILE_DESCRIPTION (( 'STEP AP203' ),
    '1' );
FILE_NAME ('960654.step',
    '2021-11-08T12:44:14',
    ( '' ),
    ( '' ),
    'SwSTEP 2.0',
    'SolidWorks 2019',
    '' );
FILE_SCHEMA (( 'CONFIG_CONTROL_DESIGN' ));
ENDSEC;

DATA;
#1 = LOCAL_TIME ( 13, 44, 14.00000000000000000, #218 ) ;
#2 = FACE_OUTER_BOUND ( 'NONE', #221, .T. ) ;
#3 = ADVANCED_FACE ( 'NONE', ( #123, #37 ), #125, .T. ) ;
#4 = FACE_OUTER_BOUND ( 'NONE', #57, .T. ) ;
#5 = DIRECTION ( 'NONE',  ( -4.275831445896958607E-31, -1.000000000000000000, -1.224646799147353207E-16 ) ) ;
#6 = CARTESIAN_POINT ( 'NONE',  ( 8.728703347107831810E-15, -1.084202172485506209E-15, 2.499999999999999556 ) ) ;
#7 = APPROVAL_PERSON_ORGANIZATION ( #24, #167, #99 ) ;
#8 = DIRECTION ( 'NONE',  ( 0.0000000000000000000, 1.000000000000000000, 0.0000000000000000000 ) ) ;
#9 =( NAMED_UNIT ( * ) SI_UNIT ( $, .STERADIAN. ) SOLID_ANGLE_UNIT ( ) );
#10 = CC_DESIGN_DATE_AND_TIME_ASSIGNMENT ( #152, #51, ( #33 ) ) ;
#11 = APPROVAL_STATUS ( 'not_yet_approved' ) ;
#12 = COORDINATED_UNIVERSAL_TIME_OFFSET ( 1, 0, .AHEAD. ) ;
#13 = CIRCLE ( 'NONE', #75, 1.999999999999998224 ) ;
#14 = AXIS2_PLACEMENT_3D ( 'NONE', #6, #64, #92 ) ;
#15 = EDGE_LOOP ( 'NONE', ( #105 ) ) ;
#16 = ORIENTED_EDGE ( 'NONE', *, *, #109, .T. ) ;
#17 = EDGE_LOOP ( 'NONE', ( #89 ) ) ;
#18 = ADVANCED_FACE ( 'NONE', ( #63, #22 ), #201, .T. ) ;
#19 = CARTESIAN_POINT ( 'NONE',  ( 1.208052543239724267E-13, 1.999999999999994005, 34.60000000000000853 ) ) ;
#20 = DIRECTION ( 'NONE',  ( 0.0000000000000000000, -1.000000000000000000, 0.0000000000000000000 ) ) ;
#21 = CARTESIAN_POINT ( 'NONE',  ( 1.208052543239724267E-13, -4.237277925049843068E-15, 34.60000000000000853 ) ) ;
#22 = FACE_OUTER_BOUND ( 'NONE', #15, .T. ) ;
#23 = DIRECTION ( 'NONE',  ( 0.0000000000000000000, 1.000000000000000000, 0.0000000000000000000 ) ) ;
#24 = PERSON_AND_ORGANIZATION ( #153, #86 ) ;
#25 = PRODUCT_RELATED_PRODUCT_CATEGORY ( 'detail', '', ( #194 ) ) ;
#26 = ADVANCED_FACE ( 'NONE', ( #80 ), #163, .F. ) ;
#27 = CARTESIAN_POINT ( 'NONE',  ( 1.222018468595096801E-13, 1.599999999999994094, 35.00000000000000000 ) ) ;
#28 = DATE_TIME_ROLE ( 'creation_date' ) ;
#29 = AXIS2_PLACEMENT_3D ( 'NONE', #215, #108, #198 ) ;
#30 = APPLICATION_CONTEXT ( 'configuration controlled 3d designs of mechanical parts and assemblies' ) ;
#31 = CARTESIAN_POINT ( 'NONE',  ( 8.728703347107830233E-15, -0.8499999999999998668, 2.499999999999999112 ) ) ;
#32 = PERSON_AND_ORGANIZATION ( #153, #86 ) ;
#33 = SECURITY_CLASSIFICATION ( '', '', #117 ) ;
#34 = APPROVAL_ROLE ( '' ) ;
#35 = EDGE_LOOP ( 'NONE', ( #175 ) ) ;
#36 = SHAPE_DEFINITION_REPRESENTATION ( #156, #73 ) ;
#37 = FACE_OUTER_BOUND ( 'NONE', #17, .T. ) ;
#38 = LOCAL_TIME ( 13, 44, 14.00000000000000000, #148 ) ;
#39 = CALENDAR_DATE ( 2021, 8, 11 ) ;
#40 = FACE_BOUND ( 'NONE', #159, .T. ) ;
#41 = CARTESIAN_POINT ( 'NONE',  ( 1.222018468595096801E-13, -4.286263797015736496E-15, 35.00000000000000000 ) ) ;
#42 = DIRECTION ( 'NONE',  ( -4.275831445896958607E-31, -1.000000000000000000, -1.224646799147353207E-16 ) ) ;
#43 = MANIFOLD_SOLID_BREP ( 'Corps-Déplacer/Copier1[1]', #209 ) ;
#44 = MANIFOLD_SOLID_BREP ( 'Corps-Déplacer/Copier1[2]', #70 ) ;
#45 = CARTESIAN_POINT ( 'NONE',  ( -2.025941305359930978E-30, 0.0000000000000000000, -5.802526517387047816E-16 ) ) ;
#46 = DIRECTION ( 'NONE',  ( 3.491481338843133355E-15, -1.224646799147353207E-16, 1.000000000000000000 ) ) ;
#47 = CIRCLE ( 'NONE', #129, 0.8499999999999996447 ) ;
#48 = EDGE_CURVE ( 'NONE', #111, #111, #203, .T. ) ;
#49 = DATE_AND_TIME ( #50, #139 ) ;
#50 = CALENDAR_DATE ( 2021, 8, 11 ) ;
#51 = DATE_TIME_ROLE ( 'classification_date' ) ;
#52 = PERSON_AND_ORGANIZATION ( #153, #86 ) ;
#53 = CC_DESIGN_PERSON_AND_ORGANIZATION_ASSIGNMENT ( #187, #170, ( #33 ) ) ;
#54 = CC_DESIGN_APPROVAL ( #116, ( #33 ) ) ;
#55 = CC_DESIGN_PERSON_AND_ORGANIZATION_ASSIGNMENT ( #32, #82, ( #165 ) ) ;
#56 = DATE_AND_TIME ( #39, #150 ) ;
#57 = EDGE_LOOP ( 'NONE', ( #91 ) ) ;
#58 = AXIS2_PLACEMENT_3D ( 'NONE', #76, #113, #23 ) ;
#59 = CARTESIAN_POINT ( 'NONE',  ( 8.728703347107831810E-15, -1.084202172485506209E-15, 2.499999999999999556 ) ) ;
#60 = DIRECTION ( 'NONE',  ( -3.491481338843133355E-15, 1.224646799147353207E-16, -1.000000000000000000 ) ) ;
#61 = DIRECTION ( 'NONE',  ( 3.491481338843133355E-15, -1.224646799147353207E-16, 1.000000000000000000 ) ) ;
#62 = AXIS2_PLACEMENT_3D ( 'NONE', #217, #112, #20 ) ;
#63 = FACE_OUTER_BOUND ( 'NONE', #122, .T. ) ;
#64 = DIRECTION ( 'NONE',  ( 3.491481338843133355E-15, -1.224646799147353207E-16, 1.000000000000000000 ) ) ;
#65 = APPROVAL_ROLE ( '' ) ;
#66 = EDGE_CURVE ( 'NONE', #179, #179, #13, .T. ) ;
#67 = MECHANICAL_CONTEXT ( 'NONE', #30, 'mechanical' ) ;
#68 = CIRCLE ( 'NONE', #29, 1.999999999999996669 ) ;
#69 = DATE_AND_TIME ( #100, #1 ) ;
#70 = CLOSED_SHELL ( 'NONE', ( #72, #18, #26 ) ) ;
#71 = ORIENTED_EDGE ( 'NONE', *, *, #66, .T. ) ;
#72 = ADVANCED_FACE ( 'NONE', ( #2 ), #216, .T. ) ;
#73 = ADVANCED_BREP_SHAPE_REPRESENTATION ( '960654', ( #43, #44, #178 ), #107 ) ;
#74 = EDGE_LOOP ( 'NONE', ( #160 ) ) ;
#75 = AXIS2_PLACEMENT_3D ( 'NONE', #21, #77, #147 ) ;
#76 = CARTESIAN_POINT ( 'NONE',  ( 1.222018468595096801E-13, -4.286263797015736496E-15, 35.00000000000000000 ) ) ;
#77 = DIRECTION ( 'NONE',  ( -3.491481338843133355E-15, 1.224646799147353207E-16, -1.000000000000000000 ) ) ;
#78 = FACE_OUTER_BOUND ( 'NONE', #193, .T. ) ;
#79 = AXIS2_PLACEMENT_3D ( 'NONE', #130, #46, #42 ) ;
#80 = FACE_OUTER_BOUND ( 'NONE', #74, .T. ) ;
#81 = APPLICATION_PROTOCOL_DEFINITION ( 'international standard', 'config_control_design', 1994, #200 ) ;
#82 = PERSON_AND_ORGANIZATION_ROLE ( 'creator' ) ;
#83 = PERSON_AND_ORGANIZATION_ROLE ( 'creator' ) ;
#84 = CALENDAR_DATE ( 2021, 8, 11 ) ;
#85 = PERSON_AND_ORGANIZATION ( #153, #86 ) ;
#86 = ORGANIZATION ( 'UNSPECIFIED', 'UNSPECIFIED', '' ) ;
#87 = ADVANCED_FACE ( 'NONE', ( #78 ), #144, .F. ) ;
#88 = EDGE_LOOP ( 'NONE', ( #191 ) ) ;
#89 = ORIENTED_EDGE ( 'NONE', *, *, #207, .T. ) ;
#90 = CONICAL_SURFACE ( 'NONE', #222, 1.999999999999996669, 0.5235987755982928205 ) ;
#91 = ORIENTED_EDGE ( 'NONE', *, *, #102, .F. ) ;
#92 = DIRECTION ( 'NONE',  ( -4.275831445896958607E-31, -1.000000000000000000, -1.224646799147353207E-16 ) ) ;
#93 = FACE_OUTER_BOUND ( 'NONE', #208, .T. ) ;
#94 = APPROVAL ( #11, 'UNSPECIFIED' ) ;
#95 = DIRECTION ( 'NONE',  ( -3.491481338843133355E-15, 1.224646799147353207E-16, -1.000000000000000000 ) ) ;
#96 = DIRECTION ( 'NONE',  ( 3.491481338843133355E-15, -1.225232690407966814E-16, 1.000000000000000000 ) ) ;
#97 = DIRECTION ( 'NONE',  ( 3.491481338843133355E-15, -1.225232690407966814E-16, 1.000000000000000000 ) ) ;
#98 = APPROVAL_STATUS ( 'not_yet_approved' ) ;
#99 = APPROVAL_ROLE ( '' ) ;
#100 = CALENDAR_DATE ( 2021, 8, 11 ) ;
#101 = APPLICATION_PROTOCOL_DEFINITION ( 'international standard', 'config_control_design', 1994, #30 ) ;
#102 = EDGE_CURVE ( 'NONE', #182, #182, #211, .T. ) ;
#103 = AXIS2_PLACEMENT_3D ( 'NONE', #41, #60, #8 ) ;
#104 = ORIENTED_EDGE ( 'NONE', *, *, #66, .F. ) ;
#105 = ORIENTED_EDGE ( 'NONE', *, *, #48, .F. ) ;
#106 = ORIENTED_EDGE ( 'NONE', *, *, #189, .T. ) ;
#107 =( GEOMETRIC_REPRESENTATION_CONTEXT ( 3 ) GLOBAL_UNCERTAINTY_ASSIGNED_CONTEXT ( ( #157 ) ) GLOBAL_UNIT_ASSIGNED_CONTEXT ( ( #206, #205, #9 ) ) REPRESENTATION_CONTEXT ( 'NONE', 'WORKASPACE' ) );
#108 = DIRECTION ( 'NONE',  ( 3.491481338843133355E-15, -1.225232690407966814E-16, 1.000000000000000000 ) ) ;
#109 = EDGE_CURVE ( 'NONE', #151, #151, #158, .T. ) ;
#110 = DIRECTION ( 'NONE',  ( 3.491481338843133355E-15, -1.225232690407966814E-16, 1.000000000000000000 ) ) ;
#111 = VERTEX_POINT ( 'NONE', #212 ) ;
#112 = DIRECTION ( 'NONE',  ( 3.491481338843133355E-15, -1.225232690407966814E-16, 1.000000000000000000 ) ) ;
#113 = DIRECTION ( 'NONE',  ( -3.491481338843133355E-15, 1.224646799147353207E-16, -1.000000000000000000 ) ) ;
#114 = AXIS2_PLACEMENT_3D ( 'NONE', #59, #61, #5 ) ;
#115 = DIRECTION ( 'NONE',  ( 0.0000000000000000000, 0.0000000000000000000, 1.000000000000000000 ) ) ;
#116 = APPROVAL ( #174, 'UNSPECIFIED' ) ;
#117 = SECURITY_CLASSIFICATION_LEVEL ( 'unclassified' ) ;
#118 = CARTESIAN_POINT ( 'NONE',  ( 1.568323988054606178E-14, -1.999999999999997113, 4.491858428704230910 ) ) ;
#119 = AXIS2_PLACEMENT_3D ( 'NONE', #197, #96, #161 ) ;
#120 = PERSON_AND_ORGANIZATION ( #153, #86 ) ;
#121 = AXIS2_PLACEMENT_3D ( 'NONE', #183, #95, #196 ) ;
#122 = EDGE_LOOP ( 'NONE', ( #106 ) ) ;
#123 = FACE_OUTER_BOUND ( 'NONE', #140, .T. ) ;
#124 = CC_DESIGN_PERSON_AND_ORGANIZATION_ASSIGNMENT ( #136, #204, ( #165 ) ) ;
#125 = CYLINDRICAL_SURFACE ( 'NONE', #121, 1.999999999999996669 ) ;
#126 = ADVANCED_FACE ( 'NONE', ( #93, #40 ), #195, .T. ) ;
#127 = FACE_BOUND ( 'NONE', #35, .T. ) ;
#128 = DIRECTION ( 'NONE',  ( -3.491481338843133355E-15, 1.224646799147353207E-16, -1.000000000000000000 ) ) ;
#129 = AXIS2_PLACEMENT_3D ( 'NONE', #202, #97, #141 ) ;
#130 = CARTESIAN_POINT ( 'NONE',  ( -8.551700045867646674E-31, 2.999532597218505004E-32, -2.449304239644358043E-16 ) ) ;
#131 = CARTESIAN_POINT ( 'NONE',  ( 1.568323988054606178E-14, -5.503571787532987682E-16, 4.491858428704230910 ) ) ;
#132 = CARTESIAN_POINT ( 'NONE',  ( -7.272391026309967539E-31, -0.8499999999999996447, -2.082895573693542893E-16 ) ) ;
#133 = CC_DESIGN_APPROVAL ( #94, ( #165 ) ) ;
#134 = DATE_AND_TIME ( #168, #38 ) ;
#135 = CC_DESIGN_PERSON_AND_ORGANIZATION_ASSIGNMENT ( #120, #83, ( #214 ) ) ;
#136 = PERSON_AND_ORGANIZATION ( #153, #86 ) ;
#137 = VERTEX_POINT ( 'NONE', #132 ) ;
#138 = CARTESIAN_POINT ( 'NONE',  ( 0.0000000000000000000, 0.0000000000000000000, 0.0000000000000000000 ) ) ;
#139 = LOCAL_TIME ( 13, 44, 14.00000000000000000, #220 ) ;
#140 = EDGE_LOOP ( 'NONE', ( #71 ) ) ;
#141 = DIRECTION ( 'NONE',  ( -4.277877074299982760E-31, -1.000000000000000000, -1.225232690407966814E-16 ) ) ;
#142 = ADVANCED_FACE ( 'NONE', ( #4 ), #164, .F. ) ;
#143 = AXIS2_PLACEMENT_3D ( 'NONE', #45, #213, #166 ) ;
#144 = PLANE ( 'NONE',  #199 ) ;
#145 = FACE_OUTER_BOUND ( 'NONE', #88, .T. ) ;
#146 = DIRECTION ( 'NONE',  ( 4.275831445896958607E-31, 1.000000000000000000, 1.224646799147353207E-16 ) ) ;
#147 = DIRECTION ( 'NONE',  ( 0.0000000000000000000, 1.000000000000000000, 0.0000000000000000000 ) ) ;
#148 = COORDINATED_UNIVERSAL_TIME_OFFSET ( 1, 0, .AHEAD. ) ;
#149 = CC_DESIGN_PERSON_AND_ORGANIZATION_ASSIGNMENT ( #85, #154, ( #194 ) ) ;
#150 = LOCAL_TIME ( 13, 44, 14.00000000000000000, #155 ) ;
#151 = VERTEX_POINT ( 'NONE', #27 ) ;
#152 = DATE_AND_TIME ( #84, #162 ) ;
#153 = PERSON ( 'UNSPECIFIED', 'UNSPECIFIED', 'UNSPECIFIED', ('UNSPECIFIED'), ('UNSPECIFIED'), ('UNSPECIFIED') ) ;
#154 = PERSON_AND_ORGANIZATION_ROLE ( 'design_owner' ) ;
#155 = COORDINATED_UNIVERSAL_TIME_OFFSET ( 1, 0, .AHEAD. ) ;
#156 = PRODUCT_DEFINITION_SHAPE ( 'NONE', 'NONE',  #214 ) ;
#157 = UNCERTAINTY_MEASURE_WITH_UNIT (LENGTH_MEASURE( 1.000000000000000082E-05 ), #206, 'distance_accuracy_value', 'NONE');
#158 = CIRCLE ( 'NONE', #58, 1.599999999999998312 ) ;
#159 = EDGE_LOOP ( 'NONE', ( #16 ) ) ;
#160 = ORIENTED_EDGE ( 'NONE', *, *, #189, .F. ) ;
#161 = DIRECTION ( 'NONE',  ( 0.0000000000000000000, -1.000000000000000000, 0.0000000000000000000 ) ) ;
#162 = LOCAL_TIME ( 13, 44, 14.00000000000000000, #12 ) ;
#163 = PLANE ( 'NONE',  #79 ) ;
#164 = PLANE ( 'NONE',  #14 ) ;
#165 = PRODUCT_DEFINITION_FORMATION_WITH_SPECIFIED_SOURCE ( 'ANY', '', #194, .NOT_KNOWN. ) ;
#166 = DIRECTION ( 'NONE',  ( -4.277877074299981884E-31, -1.000000000000000000, -1.225232690407966814E-16 ) ) ;
#167 = APPROVAL ( #98, 'UNSPECIFIED' ) ;
#168 = CALENDAR_DATE ( 2021, 8, 11 ) ;
#169 = PERSON_AND_ORGANIZATION ( #153, #86 ) ;
#170 = PERSON_AND_ORGANIZATION_ROLE ( 'classification_officer' ) ;
#171 = DIRECTION ( 'NONE',  ( 1.000000000000000000, 0.0000000000000000000, 0.0000000000000000000 ) ) ;
#172 = VERTEX_POINT ( 'NONE', #118 ) ;
#173 = CC_DESIGN_APPROVAL ( #167, ( #214 ) ) ;
#174 = APPROVAL_STATUS ( 'not_yet_approved' ) ;
#175 = ORIENTED_EDGE ( 'NONE', *, *, #102, .T. ) ;
#176 = CC_DESIGN_DATE_AND_TIME_ASSIGNMENT ( #134, #28, ( #214 ) ) ;
#177 = DESIGN_CONTEXT ( 'detailed design', #200, 'design' ) ;
#178 = AXIS2_PLACEMENT_3D ( 'NONE', #138, #115, #171 ) ;
#179 = VERTEX_POINT ( 'NONE', #19 ) ;
#180 = DIRECTION ( 'NONE',  ( 0.0000000000000000000, -1.000000000000000000, 0.0000000000000000000 ) ) ;
#181 = CC_DESIGN_SECURITY_CLASSIFICATION ( #33, ( #165 ) ) ;
#182 = VERTEX_POINT ( 'NONE', #31 ) ;
#183 = CARTESIAN_POINT ( 'NONE',  ( 0.0000000000000000000, 0.0000000000000000000, 0.0000000000000000000 ) ) ;
#184 = CARTESIAN_POINT ( 'NONE',  ( 1.222018468595096801E-13, 1.199807826129478286E-32, 35.00000000000000000 ) ) ;
#185 = APPROVAL_PERSON_ORGANIZATION ( #169, #94, #65 ) ;
#186 = ADVANCED_FACE ( 'NONE', ( #127, #145 ), #90, .T. ) ;
#187 = PERSON_AND_ORGANIZATION ( #153, #86 ) ;
#188 = APPROVAL_DATE_TIME ( #69, #94 ) ;
#189 = EDGE_CURVE ( 'NONE', #137, #137, #47, .T. ) ;
#190 = APPROVAL_PERSON_ORGANIZATION ( #52, #116, #34 ) ;
#191 = ORIENTED_EDGE ( 'NONE', *, *, #207, .F. ) ;
#192 = APPROVAL_DATE_TIME ( #56, #116 ) ;
#193 = EDGE_LOOP ( 'NONE', ( #210 ) ) ;
#194 = PRODUCT ( '960654', '960654', '', ( #67 ) ) ;
#195 = CONICAL_SURFACE ( 'NONE', #103, 1.599999999999998312, 0.7853981633974512766 ) ;
#196 = DIRECTION ( 'NONE',  ( 4.275831445896958607E-31, 1.000000000000000000, 1.224646799147353207E-16 ) ) ;
#197 = CARTESIAN_POINT ( 'NONE',  ( 8.728703347107830233E-15, -3.063081726019916542E-16, 2.499999999999999112 ) ) ;
#198 = DIRECTION ( 'NONE',  ( 0.0000000000000000000, -1.000000000000000000, 0.0000000000000000000 ) ) ;
#199 = AXIS2_PLACEMENT_3D ( 'NONE', #184, #128, #146 ) ;
#200 = APPLICATION_CONTEXT ( 'configuration controlled 3d designs of mechanical parts and assemblies' ) ;
#201 = CYLINDRICAL_SURFACE ( 'NONE', #143, 0.8499999999999996447 ) ;
#202 = CARTESIAN_POINT ( 'NONE',  ( -3.636195513154983769E-31, -5.833429302264009726E-32, -1.041447786846771447E-16 ) ) ;
#203 = CIRCLE ( 'NONE', #119, 0.8499999999999995337 ) ;
#204 = PERSON_AND_ORGANIZATION_ROLE ( 'design_supplier' ) ;
#205 =( NAMED_UNIT ( * ) PLANE_ANGLE_UNIT ( ) SI_UNIT ( $, .RADIAN. ) );
#206 =( LENGTH_UNIT ( ) NAMED_UNIT ( * ) SI_UNIT ( .MILLI., .METRE. ) );
#207 = EDGE_CURVE ( 'NONE', #172, #172, #68, .T. ) ;
#208 = EDGE_LOOP ( 'NONE', ( #104 ) ) ;
#209 = CLOSED_SHELL ( 'NONE', ( #3, #126, #87, #186, #142 ) ) ;
#210 = ORIENTED_EDGE ( 'NONE', *, *, #109, .F. ) ;
#211 = CIRCLE ( 'NONE', #62, 0.8499999999999995337 ) ;
#212 = CARTESIAN_POINT ( 'NONE',  ( 8.728703347107830233E-15, -0.8499999999999998668, 2.499999999999999112 ) ) ;
#213 = DIRECTION ( 'NONE',  ( 3.491481338843133355E-15, -1.225232690407966814E-16, 1.000000000000000000 ) ) ;
#214 = PRODUCT_DEFINITION ( 'UNKNOWN', '', #165, #177 ) ;
#215 = CARTESIAN_POINT ( 'NONE',  ( 1.568323988054606178E-14, -5.503571787532987682E-16, 4.491858428704230910 ) ) ;
#216 = PLANE ( 'NONE',  #114 ) ;
#217 = CARTESIAN_POINT ( 'NONE',  ( 8.728703347107830233E-15, -3.063081726019916542E-16, 2.499999999999999112 ) ) ;
#218 = COORDINATED_UNIVERSAL_TIME_OFFSET ( 1, 0, .AHEAD. ) ;
#219 = APPROVAL_DATE_TIME ( #49, #167 ) ;
#220 = COORDINATED_UNIVERSAL_TIME_OFFSET ( 1, 0, .AHEAD. ) ;
#221 = EDGE_LOOP ( 'NONE', ( #223 ) ) ;
#222 = AXIS2_PLACEMENT_3D ( 'NONE', #131, #110, #180 ) ;
#223 = ORIENTED_EDGE ( 'NONE', *, *, #48, .T. ) ;
ENDSEC;
END-ISO-10303-21;
