ISO-10303-21;
HEADER;
FILE_DESCRIPTION (( 'STEP AP203' ),
    '1' );
FILE_NAME ('960653.step',
    '2021-11-08T12:44:14',
    ( '' ),
    ( '' ),
    'SwSTEP 2.0',
    'SolidWorks 2019',
    '' );
FILE_SCHEMA (( 'CONFIG_CONTROL_DESIGN' ));
ENDSEC;

DATA;
#1 = ORIENTED_EDGE ( 'NONE', *, *, #177, .T. ) ;
#2 = CIRCLE ( 'NONE', #187, 0.7999999999999997113 ) ;
#3 = PERSON_AND_ORGANIZATION ( #214, #157 ) ;
#4 = ORIENTED_EDGE ( 'NONE', *, *, #99, .F. ) ;
#5 = FACE_OUTER_BOUND ( 'NONE', #123, .T. ) ;
#6 = DIRECTION ( 'NONE',  ( 0.0000000000000000000, 1.000000000000000000, 0.0000000000000000000 ) ) ;
#7 = ORIENTED_EDGE ( 'NONE', *, *, #29, .F. ) ;
#8 = CIRCLE ( 'NONE', #72, 1.999999999999998224 ) ;
#9 = CARTESIAN_POINT ( 'NONE',  ( 6.982962677686266711E-15, -4.336808689942024639E-16, 2.000000000000000000 ) ) ;
#10 = PRODUCT_DEFINITION ( 'UNKNOWN', '', #59, #192 ) ;
#11 = APPROVAL_PERSON_ORGANIZATION ( #3, #71, #100 ) ;
#12 = APPLICATION_PROTOCOL_DEFINITION ( 'international standard', 'config_control_design', 1994, #34 ) ;
#13 = APPROVAL_DATE_TIME ( #119, #198 ) ;
#14 = CONICAL_SURFACE ( 'NONE', #90, 1.599999999999998312, 0.7853981633974512766 ) ;
#15 = ORIENTED_EDGE ( 'NONE', *, *, #111, .T. ) ;
#16 = DATE_AND_TIME ( #161, #43 ) ;
#17 = FACE_OUTER_BOUND ( 'NONE', #165, .T. ) ;
#18 = DIRECTION ( 'NONE',  ( 4.275831445896958607E-31, 1.000000000000000000, 1.224646799147353207E-16 ) ) ;
#19 = PERSON_AND_ORGANIZATION_ROLE ( 'design_owner' ) ;
#20 = FACE_OUTER_BOUND ( 'NONE', #170, .T. ) ;
#21 = LOCAL_TIME ( 13, 44, 14.00000000000000000, #217 ) ;
#22 = CARTESIAN_POINT ( 'NONE',  ( 1.423987036475224554E-14, -1.999999999999997113, 4.078460969082676080 ) ) ;
#23 = DIRECTION ( 'NONE',  ( -4.275831445896958607E-31, -1.000000000000000000, -1.224646799147353207E-16 ) ) ;
#24 = ADVANCED_FACE ( 'NONE', ( #17, #94 ), #14, .T. ) ;
#25 = CALENDAR_DATE ( 2021, 8, 11 ) ;
#26 = DIRECTION ( 'NONE',  ( 0.0000000000000000000, 1.000000000000000000, 0.0000000000000000000 ) ) ;
#27 = APPROVAL_STATUS ( 'not_yet_approved' ) ;
#28 = PERSON_AND_ORGANIZATION ( #214, #157 ) ;
#29 = EDGE_CURVE ( 'NONE', #127, #127, #204, .T. ) ;
#30 = CALENDAR_DATE ( 2021, 8, 11 ) ;
#31 = LOCAL_TIME ( 13, 44, 14.00000000000000000, #41 ) ;
#32 = CC_DESIGN_PERSON_AND_ORGANIZATION_ASSIGNMENT ( #69, #47, ( #59 ) ) ;
#33 = EDGE_LOOP ( 'NONE', ( #15 ) ) ;
#34 = APPLICATION_CONTEXT ( 'configuration controlled 3d designs of mechanical parts and assemblies' ) ;
#35 = DIRECTION ( 'NONE',  ( 4.275831445896958607E-31, 1.000000000000000000, 1.224646799147353207E-16 ) ) ;
#36 = CC_DESIGN_PERSON_AND_ORGANIZATION_ASSIGNMENT ( #143, #154, ( #166 ) ) ;
#37 = DIRECTION ( 'NONE',  ( -3.491481338843133355E-15, 1.224646799147353207E-16, -1.000000000000000000 ) ) ;
#38 = CIRCLE ( 'NONE', #103, 0.7999999999999997113 ) ;
#39 = VERTEX_POINT ( 'NONE', #61 ) ;
#40 = AXIS2_PLACEMENT_3D ( 'NONE', #115, #37, #18 ) ;
#41 = COORDINATED_UNIVERSAL_TIME_OFFSET ( 1, 0, .AHEAD. ) ;
#42 = DIRECTION ( 'NONE',  ( -3.491481338843133355E-15, 1.224646799147353207E-16, -1.000000000000000000 ) ) ;
#43 = LOCAL_TIME ( 13, 44, 14.00000000000000000, #156 ) ;
#44 = CC_DESIGN_APPROVAL ( #198, ( #10 ) ) ;
#45 = APPROVAL_ROLE ( '' ) ;
#46 = SECURITY_CLASSIFICATION_LEVEL ( 'unclassified' ) ;
#47 = PERSON_AND_ORGANIZATION_ROLE ( 'creator' ) ;
#48 = PERSON_AND_ORGANIZATION ( #214, #157 ) ;
#49 = UNCERTAINTY_MEASURE_WITH_UNIT (LENGTH_MEASURE( 1.000000000000000082E-05 ), #87, 'distance_accuracy_value', 'NONE');
#50 = ADVANCED_BREP_SHAPE_REPRESENTATION ( '960653', ( #76, #218, #220 ), #118 ) ;
#51 = EDGE_CURVE ( 'NONE', #185, #185, #38, .T. ) ;
#52 = COORDINATED_UNIVERSAL_TIME_OFFSET ( 1, 0, .AHEAD. ) ;
#53 = ORIENTED_EDGE ( 'NONE', *, *, #111, .F. ) ;
#54 = APPROVAL_DATE_TIME ( #16, #70 ) ;
#55 = DIRECTION ( 'NONE',  ( 3.491481338843133355E-15, -1.225232690407966814E-16, 1.000000000000000000 ) ) ;
#56 = PERSON_AND_ORGANIZATION ( #214, #157 ) ;
#57 = DIRECTION ( 'NONE',  ( 0.0000000000000000000, -1.000000000000000000, 0.0000000000000000000 ) ) ;
#58 = APPLICATION_CONTEXT ( 'configuration controlled 3d designs of mechanical parts and assemblies' ) ;
#59 = PRODUCT_DEFINITION_FORMATION_WITH_SPECIFIED_SOURCE ( 'ANY', '', #101, .NOT_KNOWN. ) ;
#60 = DIRECTION ( 'NONE',  ( 3.491481338843133355E-15, -1.225232690407966814E-16, 1.000000000000000000 ) ) ;
#61 = CARTESIAN_POINT ( 'NONE',  ( 1.222018468595096801E-13, 1.599999999999994094, 35.00000000000000000 ) ) ;
#62 = DIRECTION ( 'NONE',  ( 3.491481338843133355E-15, -1.224646799147353207E-16, 1.000000000000000000 ) ) ;
#63 = CALENDAR_DATE ( 2021, 8, 11 ) ;
#64 = CARTESIAN_POINT ( 'NONE',  ( 6.982962677686263555E-15, -0.7999999999999999334, 1.999999999999999112 ) ) ;
#65 = CARTESIAN_POINT ( 'NONE',  ( 1.208052543239724267E-13, -4.237277925049843068E-15, 34.60000000000000853 ) ) ;
#66 = CYLINDRICAL_SURFACE ( 'NONE', #201, 0.7999999999999997113 ) ;
#67 = FACE_OUTER_BOUND ( 'NONE', #203, .T. ) ;
#68 = DIRECTION ( 'NONE',  ( 3.491481338843133355E-15, -1.224646799147353207E-16, 1.000000000000000000 ) ) ;
#69 = PERSON_AND_ORGANIZATION ( #214, #157 ) ;
#70 = APPROVAL ( #176, 'UNSPECIFIED' ) ;
#71 = APPROVAL ( #210, 'UNSPECIFIED' ) ;
#72 = AXIS2_PLACEMENT_3D ( 'NONE', #65, #149, #6 ) ;
#73 = CARTESIAN_POINT ( 'NONE',  ( 6.982962677686263555E-15, -2.450465380815933135E-16, 1.999999999999999112 ) ) ;
#74 = ADVANCED_FACE ( 'NONE', ( #5, #211 ), #66, .T. ) ;
#75 = MECHANICAL_CONTEXT ( 'NONE', #34, 'mechanical' ) ;
#76 = MANIFOLD_SOLID_BREP ( 'Corps-Déplacer/Copier1[1]', #155 ) ;
#77 = APPROVAL_PERSON_ORGANIZATION ( #171, #198, #45 ) ;
#78 = CARTESIAN_POINT ( 'NONE',  ( -3.422301659439986295E-31, -5.908489059546225967E-32, -9.801861523263736483E-17 ) ) ;
#79 = CARTESIAN_POINT ( 'NONE',  ( 1.423987036475224554E-14, -4.997063705873051211E-16, 4.078460969082676080 ) ) ;
#80 = CARTESIAN_POINT ( 'NONE',  ( 1.222018468595096801E-13, -4.286263797015736496E-15, 35.00000000000000000 ) ) ;
#81 = AXIS2_PLACEMENT_3D ( 'NONE', #129, #219, #35 ) ;
#82 = VERTEX_POINT ( 'NONE', #113 ) ;
#83 = CC_DESIGN_DATE_AND_TIME_ASSIGNMENT ( #131, #132, ( #10 ) ) ;
#84 = DIRECTION ( 'NONE',  ( 0.0000000000000000000, -1.000000000000000000, 0.0000000000000000000 ) ) ;
#85 = CLOSED_SHELL ( 'NONE', ( #163, #74, #152 ) ) ;
#86 = DIRECTION ( 'NONE',  ( -4.277877074299983636E-31, -1.000000000000000000, -1.225232690407966321E-16 ) ) ;
#87 =( LENGTH_UNIT ( ) NAMED_UNIT ( * ) SI_UNIT ( .MILLI., .METRE. ) );
#88 = PRODUCT_RELATED_PRODUCT_CATEGORY ( 'detail', '', ( #101 ) ) ;
#89 = AXIS2_PLACEMENT_3D ( 'NONE', #167, #68, #110 ) ;
#90 = AXIS2_PLACEMENT_3D ( 'NONE', #80, #160, #125 ) ;
#91 = DIRECTION ( 'NONE',  ( -4.275831445896958607E-31, -1.000000000000000000, -1.224646799147353207E-16 ) ) ;
#92 = ORIENTED_EDGE ( 'NONE', *, *, #150, .F. ) ;
#93 = FACE_BOUND ( 'NONE', #33, .T. ) ;
#94 = FACE_BOUND ( 'NONE', #98, .T. ) ;
#95 = CC_DESIGN_PERSON_AND_ORGANIZATION_ASSIGNMENT ( #48, #215, ( #59 ) ) ;
#96 = PLANE ( 'NONE',  #105 ) ;
#97 = CYLINDRICAL_SURFACE ( 'NONE', #81, 1.999999999999996669 ) ;
#98 = EDGE_LOOP ( 'NONE', ( #124 ) ) ;
#99 = EDGE_CURVE ( 'NONE', #39, #39, #193, .T. ) ;
#100 = APPROVAL_ROLE ( '' ) ;
#101 = PRODUCT ( '960653', '960653', '', ( #75 ) ) ;
#102 = DATE_AND_TIME ( #25, #31 ) ;
#103 = AXIS2_PLACEMENT_3D ( 'NONE', #126, #60, #84 ) ;
#104 = ADVANCED_FACE ( 'NONE', ( #151 ), #191, .F. ) ;
#105 = AXIS2_PLACEMENT_3D ( 'NONE', #199, #62, #23 ) ;
#106 = DATE_AND_TIME ( #30, #21 ) ;
#107 = EDGE_LOOP ( 'NONE', ( #53 ) ) ;
#108 = CC_DESIGN_PERSON_AND_ORGANIZATION_ASSIGNMENT ( #28, #221, ( #10 ) ) ;
#109 = AXIS2_PLACEMENT_3D ( 'NONE', #9, #216, #91 ) ;
#110 = DIRECTION ( 'NONE',  ( -4.275831445896958607E-31, -1.000000000000000000, -1.224646799147353207E-16 ) ) ;
#111 = EDGE_CURVE ( 'NONE', #162, #162, #2, .T. ) ;
#112 = PLANE ( 'NONE',  #89 ) ;
#113 = CARTESIAN_POINT ( 'NONE',  ( -6.844603318879970839E-31, -0.7999999999999998224, -1.960372304652746804E-16 ) ) ;
#114 = DIRECTION ( 'NONE',  ( 3.491481338843133355E-15, -1.225232690407966814E-16, 1.000000000000000000 ) ) ;
#115 = CARTESIAN_POINT ( 'NONE',  ( 1.222018468595096801E-13, 1.199807826129478286E-32, 35.00000000000000000 ) ) ;
#116 = APPROVAL_PERSON_ORGANIZATION ( #142, #70, #196 ) ;
#117 =( NAMED_UNIT ( * ) PLANE_ANGLE_UNIT ( ) SI_UNIT ( $, .RADIAN. ) );
#118 =( GEOMETRIC_REPRESENTATION_CONTEXT ( 3 ) GLOBAL_UNCERTAINTY_ASSIGNED_CONTEXT ( ( #49 ) ) GLOBAL_UNIT_ASSIGNED_CONTEXT ( ( #87, #117, #138 ) ) REPRESENTATION_CONTEXT ( 'NONE', 'WORKASPACE' ) );
#119 = DATE_AND_TIME ( #135, #128 ) ;
#120 = CARTESIAN_POINT ( 'NONE',  ( 0.0000000000000000000, 0.0000000000000000000, 0.0000000000000000000 ) ) ;
#121 = CC_DESIGN_APPROVAL ( #71, ( #59 ) ) ;
#122 = EDGE_LOOP ( 'NONE', ( #1 ) ) ;
#123 = EDGE_LOOP ( 'NONE', ( #184 ) ) ;
#124 = ORIENTED_EDGE ( 'NONE', *, *, #99, .T. ) ;
#125 = DIRECTION ( 'NONE',  ( 0.0000000000000000000, 1.000000000000000000, 0.0000000000000000000 ) ) ;
#126 = CARTESIAN_POINT ( 'NONE',  ( 6.982962677686263555E-15, -2.450465380815933135E-16, 1.999999999999999112 ) ) ;
#127 = VERTEX_POINT ( 'NONE', #22 ) ;
#128 = LOCAL_TIME ( 13, 44, 14.00000000000000000, #136 ) ;
#129 = CARTESIAN_POINT ( 'NONE',  ( 0.0000000000000000000, 0.0000000000000000000, 0.0000000000000000000 ) ) ;
#130 = DIRECTION ( 'NONE',  ( 3.491481338843133355E-15, -1.225232690407966814E-16, 1.000000000000000000 ) ) ;
#131 = DATE_AND_TIME ( #63, #133 ) ;
#132 = DATE_TIME_ROLE ( 'creation_date' ) ;
#133 = LOCAL_TIME ( 13, 44, 14.00000000000000000, #52 ) ;
#134 = ADVANCED_FACE ( 'NONE', ( #93, #222 ), #146, .T. ) ;
#135 = CALENDAR_DATE ( 2021, 8, 11 ) ;
#136 = COORDINATED_UNIVERSAL_TIME_OFFSET ( 1, 0, .AHEAD. ) ;
#137 = AXIS2_PLACEMENT_3D ( 'NONE', #79, #207, #57 ) ;
#138 =( NAMED_UNIT ( * ) SI_UNIT ( $, .STERADIAN. ) SOLID_ANGLE_UNIT ( ) );
#139 = EDGE_LOOP ( 'NONE', ( #4 ) ) ;
#140 = DATE_TIME_ROLE ( 'classification_date' ) ;
#141 = DIRECTION ( 'NONE',  ( 0.0000000000000000000, -1.000000000000000000, 0.0000000000000000000 ) ) ;
#142 = PERSON_AND_ORGANIZATION ( #214, #157 ) ;
#143 = PERSON_AND_ORGANIZATION ( #214, #157 ) ;
#144 = FACE_OUTER_BOUND ( 'NONE', #122, .T. ) ;
#145 = ORIENTED_EDGE ( 'NONE', *, *, #177, .F. ) ;
#146 = CONICAL_SURFACE ( 'NONE', #172, 1.999999999999996669, 0.5235987755982927094 ) ;
#147 = CC_DESIGN_DATE_AND_TIME_ASSIGNMENT ( #106, #140, ( #166 ) ) ;
#148 = ORIENTED_EDGE ( 'NONE', *, *, #51, .F. ) ;
#149 = DIRECTION ( 'NONE',  ( -3.491481338843133355E-15, 1.224646799147353207E-16, -1.000000000000000000 ) ) ;
#150 = EDGE_CURVE ( 'NONE', #82, #82, #181, .T. ) ;
#151 = FACE_OUTER_BOUND ( 'NONE', #107, .T. ) ;
#152 = ADVANCED_FACE ( 'NONE', ( #67 ), #112, .F. ) ;
#153 = CC_DESIGN_APPROVAL ( #70, ( #166 ) ) ;
#154 = PERSON_AND_ORGANIZATION_ROLE ( 'classification_officer' ) ;
#155 = CLOSED_SHELL ( 'NONE', ( #183, #24, #209, #134, #104 ) ) ;
#156 = COORDINATED_UNIVERSAL_TIME_OFFSET ( 1, 0, .AHEAD. ) ;
#157 = ORGANIZATION ( 'UNSPECIFIED', 'UNSPECIFIED', '' ) ;
#158 = SHAPE_DEFINITION_REPRESENTATION ( #208, #50 ) ;
#159 = CARTESIAN_POINT ( 'NONE',  ( 1.423987036475224554E-14, -4.997063705873051211E-16, 4.078460969082676080 ) ) ;
#160 = DIRECTION ( 'NONE',  ( -3.491481338843133355E-15, 1.224646799147353207E-16, -1.000000000000000000 ) ) ;
#161 = CALENDAR_DATE ( 2021, 8, 11 ) ;
#162 = VERTEX_POINT ( 'NONE', #64 ) ;
#163 = ADVANCED_FACE ( 'NONE', ( #20 ), #96, .T. ) ;
#164 = FACE_OUTER_BOUND ( 'NONE', #205, .T. ) ;
#165 = EDGE_LOOP ( 'NONE', ( #145 ) ) ;
#166 = SECURITY_CLASSIFICATION ( '', '', #46 ) ;
#167 = CARTESIAN_POINT ( 'NONE',  ( -8.551700045867646674E-31, 2.999532597218505004E-32, -2.449304239644358043E-16 ) ) ;
#168 = CARTESIAN_POINT ( 'NONE',  ( 6.982962677686263555E-15, -0.7999999999999999334, 1.999999999999999112 ) ) ;
#169 = CC_DESIGN_PERSON_AND_ORGANIZATION_ASSIGNMENT ( #56, #19, ( #101 ) ) ;
#170 = EDGE_LOOP ( 'NONE', ( #179 ) ) ;
#171 = PERSON_AND_ORGANIZATION ( #214, #157 ) ;
#172 = AXIS2_PLACEMENT_3D ( 'NONE', #159, #202, #141 ) ;
#173 = APPLICATION_PROTOCOL_DEFINITION ( 'international standard', 'config_control_design', 1994, #58 ) ;
#174 = DIRECTION ( 'NONE',  ( 0.0000000000000000000, 0.0000000000000000000, 1.000000000000000000 ) ) ;
#175 = DIRECTION ( 'NONE',  ( 1.000000000000000000, 0.0000000000000000000, 0.0000000000000000000 ) ) ;
#176 = APPROVAL_STATUS ( 'not_yet_approved' ) ;
#177 = EDGE_CURVE ( 'NONE', #223, #223, #8, .T. ) ;
#178 = DIRECTION ( 'NONE',  ( 0.0000000000000000000, -1.000000000000000000, 0.0000000000000000000 ) ) ;
#179 = ORIENTED_EDGE ( 'NONE', *, *, #51, .T. ) ;
#180 = EDGE_LOOP ( 'NONE', ( #7 ) ) ;
#181 = CIRCLE ( 'NONE', #190, 0.7999999999999998224 ) ;
#182 = PLANE ( 'NONE',  #40 ) ;
#183 = ADVANCED_FACE ( 'NONE', ( #144, #164 ), #97, .T. ) ;
#184 = ORIENTED_EDGE ( 'NONE', *, *, #150, .T. ) ;
#185 = VERTEX_POINT ( 'NONE', #168 ) ;
#186 = CARTESIAN_POINT ( 'NONE',  ( -2.025941305359930978E-30, 0.0000000000000000000, -5.802526517387047816E-16 ) ) ;
#187 = AXIS2_PLACEMENT_3D ( 'NONE', #73, #55, #178 ) ;
#188 = CARTESIAN_POINT ( 'NONE',  ( 1.222018468595096801E-13, -4.286263797015736496E-15, 35.00000000000000000 ) ) ;
#189 = CARTESIAN_POINT ( 'NONE',  ( 1.208052543239724267E-13, 1.999999999999994005, 34.60000000000000853 ) ) ;
#190 = AXIS2_PLACEMENT_3D ( 'NONE', #78, #130, #212 ) ;
#191 = PLANE ( 'NONE',  #109 ) ;
#192 = DESIGN_CONTEXT ( 'detailed design', #58, 'design' ) ;
#193 = CIRCLE ( 'NONE', #197, 1.599999999999998312 ) ;
#194 = ORIENTED_EDGE ( 'NONE', *, *, #29, .T. ) ;
#195 = FACE_OUTER_BOUND ( 'NONE', #139, .T. ) ;
#196 = APPROVAL_ROLE ( '' ) ;
#197 = AXIS2_PLACEMENT_3D ( 'NONE', #188, #42, #26 ) ;
#198 = APPROVAL ( #27, 'UNSPECIFIED' ) ;
#199 = CARTESIAN_POINT ( 'NONE',  ( 6.982962677686266711E-15, -4.336808689942024639E-16, 2.000000000000000000 ) ) ;
#200 = CC_DESIGN_SECURITY_CLASSIFICATION ( #166, ( #59 ) ) ;
#201 = AXIS2_PLACEMENT_3D ( 'NONE', #186, #114, #86 ) ;
#202 = DIRECTION ( 'NONE',  ( 3.491481338843133355E-15, -1.225232690407966814E-16, 1.000000000000000000 ) ) ;
#203 = EDGE_LOOP ( 'NONE', ( #92 ) ) ;
#204 = CIRCLE ( 'NONE', #137, 1.999999999999996669 ) ;
#205 = EDGE_LOOP ( 'NONE', ( #194 ) ) ;
#206 = EDGE_LOOP ( 'NONE', ( #148 ) ) ;
#207 = DIRECTION ( 'NONE',  ( 3.491481338843133355E-15, -1.225232690407966814E-16, 1.000000000000000000 ) ) ;
#208 = PRODUCT_DEFINITION_SHAPE ( 'NONE', 'NONE',  #10 ) ;
#209 = ADVANCED_FACE ( 'NONE', ( #195 ), #182, .F. ) ;
#210 = APPROVAL_STATUS ( 'not_yet_approved' ) ;
#211 = FACE_OUTER_BOUND ( 'NONE', #206, .T. ) ;
#212 = DIRECTION ( 'NONE',  ( -4.277877074299981884E-31, -1.000000000000000000, -1.225232690407966814E-16 ) ) ;
#213 = APPROVAL_DATE_TIME ( #102, #71 ) ;
#214 = PERSON ( 'UNSPECIFIED', 'UNSPECIFIED', 'UNSPECIFIED', ('UNSPECIFIED'), ('UNSPECIFIED'), ('UNSPECIFIED') ) ;
#215 = PERSON_AND_ORGANIZATION_ROLE ( 'design_supplier' ) ;
#216 = DIRECTION ( 'NONE',  ( 3.491481338843133355E-15, -1.224646799147353207E-16, 1.000000000000000000 ) ) ;
#217 = COORDINATED_UNIVERSAL_TIME_OFFSET ( 1, 0, .AHEAD. ) ;
#218 = MANIFOLD_SOLID_BREP ( 'Corps-Déplacer/Copier1[2]', #85 ) ;
#219 = DIRECTION ( 'NONE',  ( -3.491481338843133355E-15, 1.224646799147353207E-16, -1.000000000000000000 ) ) ;
#220 = AXIS2_PLACEMENT_3D ( 'NONE', #120, #174, #175 ) ;
#221 = PERSON_AND_ORGANIZATION_ROLE ( 'creator' ) ;
#222 = FACE_OUTER_BOUND ( 'NONE', #180, .T. ) ;
#223 = VERTEX_POINT ( 'NONE', #189 ) ;
ENDSEC;
END-ISO-10303-21;
