ISO-10303-21;
HEADER;
FILE_DESCRIPTION (( 'STEP AP203' ),
    '1' );
FILE_NAME ('960652.step',
    '2021-11-08T12:44:13',
    ( '' ),
    ( '' ),
    'SwSTEP 2.0',
    'SolidWorks 2019',
    '' );
FILE_SCHEMA (( 'CONFIG_CONTROL_DESIGN' ));
ENDSEC;

DATA;
#1 = CALENDAR_DATE ( 2021, 8, 11 ) ;
#2 = CC_DESIGN_SECURITY_CLASSIFICATION ( #194, ( #18 ) ) ;
#3 = PERSON_AND_ORGANIZATION_ROLE ( 'creator' ) ;
#4 = VERTEX_POINT ( 'NONE', #196 ) ;
#5 = CARTESIAN_POINT ( 'NONE',  ( 1.222018468595096801E-13, -4.286263797015736496E-15, 35.00000000000000000 ) ) ;
#6 = CARTESIAN_POINT ( 'NONE',  ( 1.222018468595096801E-13, -4.286263797015736496E-15, 35.00000000000000000 ) ) ;
#7 = DATE_AND_TIME ( #109, #189 ) ;
#8 = APPROVAL ( #84, 'UNSPECIFIED' ) ;
#9 = DIRECTION ( 'NONE',  ( -3.491481338843133355E-15, 1.224646799147353207E-16, -1.000000000000000000 ) ) ;
#10 = APPROVAL_PERSON_ORGANIZATION ( #56, #8, #180 ) ;
#11 = FACE_BOUND ( 'NONE', #153, .T. ) ;
#12 = DIRECTION ( 'NONE',  ( -3.491481338843133355E-15, 1.224646799147353207E-16, -1.000000000000000000 ) ) ;
#13 = UNCERTAINTY_MEASURE_WITH_UNIT (LENGTH_MEASURE( 1.000000000000000082E-05 ), #60, 'distance_accuracy_value', 'NONE');
#14 = EDGE_LOOP ( 'NONE', ( #201 ) ) ;
#15 = ORIENTED_EDGE ( 'NONE', *, *, #98, .T. ) ;
#16 = DATE_AND_TIME ( #19, #130 ) ;
#17 = CLOSED_SHELL ( 'NONE', ( #193, #96, #29, #74, #106 ) ) ;
#18 = PRODUCT_DEFINITION_FORMATION_WITH_SPECIFIED_SOURCE ( 'ANY', '', #67, .NOT_KNOWN. ) ;
#19 = CALENDAR_DATE ( 2021, 8, 11 ) ;
#20 = DATE_AND_TIME ( #169, #160 ) ;
#21 = CARTESIAN_POINT ( 'NONE',  ( -3.208407805724986194E-31, -5.983548816828444398E-32, -9.189245178059749871E-17 ) ) ;
#22 = CARTESIAN_POINT ( 'NONE',  ( 1.208052543239724267E-13, -4.237277925049843068E-15, 34.60000000000000853 ) ) ;
#23 = VERTEX_POINT ( 'NONE', #95 ) ;
#24 = ADVANCED_FACE ( 'NONE', ( #145 ), #218, .T. ) ;
#25 = PERSON_AND_ORGANIZATION_ROLE ( 'design_supplier' ) ;
#26 = CARTESIAN_POINT ( 'NONE',  ( 6.982962677686263555E-15, -2.450465380815933135E-16, 1.999999999999999112 ) ) ;
#27 = DIRECTION ( 'NONE',  ( 3.491481338843133355E-15, -1.225232690407966814E-16, 1.000000000000000000 ) ) ;
#28 = CC_DESIGN_APPROVAL ( #136, ( #104 ) ) ;
#29 = ADVANCED_FACE ( 'NONE', ( #31 ), #147, .F. ) ;
#30 = ORIENTED_EDGE ( 'NONE', *, *, #155, .T. ) ;
#31 = FACE_OUTER_BOUND ( 'NONE', #113, .T. ) ;
#32 = AXIS2_PLACEMENT_3D ( 'NONE', #197, #27, #121 ) ;
#33 = CC_DESIGN_PERSON_AND_ORGANIZATION_ASSIGNMENT ( #176, #3, ( #18 ) ) ;
#34 = DIRECTION ( 'NONE',  ( 3.491481338843133355E-15, -1.224646799147353207E-16, 1.000000000000000000 ) ) ;
#35 = ORIENTED_EDGE ( 'NONE', *, *, #156, .T. ) ;
#36 = FACE_OUTER_BOUND ( 'NONE', #219, .T. ) ;
#37 = APPROVAL ( #59, 'UNSPECIFIED' ) ;
#38 = COORDINATED_UNIVERSAL_TIME_OFFSET ( 1, 0, .AHEAD. ) ;
#39 = CARTESIAN_POINT ( 'NONE',  ( -8.551700045867646674E-31, 2.999532597218505004E-32, -2.449304239644358043E-16 ) ) ;
#40 = EDGE_LOOP ( 'NONE', ( #15 ) ) ;
#41 = APPROVAL_DATE_TIME ( #117, #37 ) ;
#42 = CIRCLE ( 'NONE', #209, 0.7499999999999995559 ) ;
#43 = COORDINATED_UNIVERSAL_TIME_OFFSET ( 1, 0, .AHEAD. ) ;
#44 = DIRECTION ( 'NONE',  ( -3.491481338843133355E-15, 1.224646799147353207E-16, -1.000000000000000000 ) ) ;
#45 = AXIS2_PLACEMENT_3D ( 'NONE', #102, #12, #185 ) ;
#46 = DIRECTION ( 'NONE',  ( 0.0000000000000000000, -1.000000000000000000, 0.0000000000000000000 ) ) ;
#47 = VERTEX_POINT ( 'NONE', #58 ) ;
#48 = CC_DESIGN_PERSON_AND_ORGANIZATION_ASSIGNMENT ( #205, #116, ( #104 ) ) ;
#49 = CIRCLE ( 'NONE', #127, 1.999999999999998224 ) ;
#50 = ORIENTED_EDGE ( 'NONE', *, *, #71, .F. ) ;
#51 = APPROVAL_PERSON_ORGANIZATION ( #81, #37, #110 ) ;
#52 = CARTESIAN_POINT ( 'NONE',  ( 0.0000000000000000000, 0.0000000000000000000, 0.0000000000000000000 ) ) ;
#53 = DIRECTION ( 'NONE',  ( 1.000000000000000000, 0.0000000000000000000, 0.0000000000000000000 ) ) ;
#54 = APPROVAL_STATUS ( 'not_yet_approved' ) ;
#55 = DIRECTION ( 'NONE',  ( 0.0000000000000000000, -1.000000000000000000, 0.0000000000000000000 ) ) ;
#56 = PERSON_AND_ORGANIZATION ( #181, #99 ) ;
#57 = DATE_TIME_ROLE ( 'classification_date' ) ;
#58 = CARTESIAN_POINT ( 'NONE',  ( 6.982962677686263555E-15, -0.7499999999999997780, 1.999999999999999112 ) ) ;
#59 = APPROVAL_STATUS ( 'not_yet_approved' ) ;
#60 =( LENGTH_UNIT ( ) NAMED_UNIT ( * ) SI_UNIT ( .MILLI., .METRE. ) );
#61 = PERSON_AND_ORGANIZATION ( #181, #99 ) ;
#62 =( NAMED_UNIT ( * ) PLANE_ANGLE_UNIT ( ) SI_UNIT ( $, .RADIAN. ) );
#63 = CC_DESIGN_APPROVAL ( #37, ( #194 ) ) ;
#64 = CIRCLE ( 'NONE', #222, 0.7499999999999997780 ) ;
#65 = VERTEX_POINT ( 'NONE', #105 ) ;
#66 = MANIFOLD_SOLID_BREP ( 'Corps-Déplacer/Copier1[1]', #17 ) ;
#67 = PRODUCT ( '960652', '960652', '', ( #88 ) ) ;
#68 = CC_DESIGN_DATE_AND_TIME_ASSIGNMENT ( #20, #57, ( #194 ) ) ;
#69 = CIRCLE ( 'NONE', #186, 1.999999999999996669 ) ;
#70 = FACE_OUTER_BOUND ( 'NONE', #146, .T. ) ;
#71 = EDGE_CURVE ( 'NONE', #100, #100, #108, .T. ) ;
#72 = CARTESIAN_POINT ( 'NONE',  ( 1.222018468595096801E-13, 1.599999999999994094, 35.00000000000000000 ) ) ;
#73 = EDGE_LOOP ( 'NONE', ( #184 ) ) ;
#74 = ADVANCED_FACE ( 'NONE', ( #11, #97 ), #119, .T. ) ;
#75 = CARTESIAN_POINT ( 'NONE',  ( 6.982962677686266711E-15, -4.336808689942024639E-16, 2.000000000000000000 ) ) ;
#76 = DIRECTION ( 'NONE',  ( 3.491481338843133355E-15, -1.225232690407966814E-16, 1.000000000000000000 ) ) ;
#77 = ORIENTED_EDGE ( 'NONE', *, *, #171, .T. ) ;
#78 = APPROVAL_DATE_TIME ( #16, #136 ) ;
#79 = DIRECTION ( 'NONE',  ( 3.491481338843133355E-15, -1.225232690407966814E-16, 1.000000000000000000 ) ) ;
#80 = DATE_AND_TIME ( #1, #92 ) ;
#81 = PERSON_AND_ORGANIZATION ( #181, #99 ) ;
#82 = CC_DESIGN_DATE_AND_TIME_ASSIGNMENT ( #80, #134, ( #104 ) ) ;
#83 = PERSON_AND_ORGANIZATION_ROLE ( 'classification_officer' ) ;
#84 = APPROVAL_STATUS ( 'not_yet_approved' ) ;
#85 = CC_DESIGN_APPROVAL ( #8, ( #18 ) ) ;
#86 = FACE_BOUND ( 'NONE', #91, .T. ) ;
#87 = CARTESIAN_POINT ( 'NONE',  ( -2.025941305359930978E-30, 0.0000000000000000000, -5.802526517387047816E-16 ) ) ;
#88 = MECHANICAL_CONTEXT ( 'NONE', #144, 'mechanical' ) ;
#89 = PLANE ( 'NONE',  #175 ) ;
#90 = PERSON_AND_ORGANIZATION ( #181, #99 ) ;
#91 = EDGE_LOOP ( 'NONE', ( #187 ) ) ;
#92 = LOCAL_TIME ( 13, 44, 13.00000000000000000, #172 ) ;
#93 = CC_DESIGN_PERSON_AND_ORGANIZATION_ASSIGNMENT ( #151, #128, ( #67 ) ) ;
#94 = FACE_OUTER_BOUND ( 'NONE', #166, .T. ) ;
#95 = CARTESIAN_POINT ( 'NONE',  ( 1.454224151837999282E-14, -1.999999999999997113, 4.165063509461121249 ) ) ;
#96 = ADVANCED_FACE ( 'NONE', ( #157, #86 ), #120, .T. ) ;
#97 = FACE_OUTER_BOUND ( 'NONE', #131, .T. ) ;
#98 = EDGE_CURVE ( 'NONE', #47, #47, #42, .T. ) ;
#99 = ORGANIZATION ( 'UNSPECIFIED', 'UNSPECIFIED', '' ) ;
#100 = VERTEX_POINT ( 'NONE', #72 ) ;
#101 = ORIENTED_EDGE ( 'NONE', *, *, #156, .F. ) ;
#102 = CARTESIAN_POINT ( 'NONE',  ( 1.222018468595096801E-13, 1.199807826129478286E-32, 35.00000000000000000 ) ) ;
#103 = DIRECTION ( 'NONE',  ( -4.275831445896958607E-31, -1.000000000000000000, -1.224646799147353207E-16 ) ) ;
#104 = PRODUCT_DEFINITION ( 'UNKNOWN', '', #18, #143 ) ;
#105 = CARTESIAN_POINT ( 'NONE',  ( 6.982962677686263555E-15, -0.7499999999999997780, 1.999999999999999112 ) ) ;
#106 = ADVANCED_FACE ( 'NONE', ( #70 ), #216, .F. ) ;
#107 =( GEOMETRIC_REPRESENTATION_CONTEXT ( 3 ) GLOBAL_UNCERTAINTY_ASSIGNED_CONTEXT ( ( #13 ) ) GLOBAL_UNIT_ASSIGNED_CONTEXT ( ( #60, #62, #133 ) ) REPRESENTATION_CONTEXT ( 'NONE', 'WORKASPACE' ) );
#108 = CIRCLE ( 'NONE', #221, 1.599999999999998312 ) ;
#109 = CALENDAR_DATE ( 2021, 8, 11 ) ;
#110 = APPROVAL_ROLE ( '' ) ;
#111 = CIRCLE ( 'NONE', #202, 0.7499999999999995559 ) ;
#112 = DIRECTION ( 'NONE',  ( 3.491481338843133355E-15, -1.224646799147353207E-16, 1.000000000000000000 ) ) ;
#113 = EDGE_LOOP ( 'NONE', ( #50 ) ) ;
#114 = DIRECTION ( 'NONE',  ( -3.491481338843133355E-15, 1.224646799147353207E-16, -1.000000000000000000 ) ) ;
#115 = APPLICATION_PROTOCOL_DEFINITION ( 'international standard', 'config_control_design', 1994, #182 ) ;
#116 = PERSON_AND_ORGANIZATION_ROLE ( 'creator' ) ;
#117 = DATE_AND_TIME ( #154, #150 ) ;
#118 = VERTEX_POINT ( 'NONE', #211 ) ;
#119 = CONICAL_SURFACE ( 'NONE', #32, 1.999999999999996669, 0.5235987755982928205 ) ;
#120 = CONICAL_SURFACE ( 'NONE', #162, 1.599999999999998312, 0.7853981633974512766 ) ;
#121 = DIRECTION ( 'NONE',  ( 0.0000000000000000000, -1.000000000000000000, 0.0000000000000000000 ) ) ;
#122 = DIRECTION ( 'NONE',  ( 0.0000000000000000000, 1.000000000000000000, 0.0000000000000000000 ) ) ;
#123 = CC_DESIGN_PERSON_AND_ORGANIZATION_ASSIGNMENT ( #61, #25, ( #18 ) ) ;
#124 = CYLINDRICAL_SURFACE ( 'NONE', #177, 0.7499999999999996669 ) ;
#125 = MANIFOLD_SOLID_BREP ( 'Corps-Déplacer/Copier1[2]', #210 ) ;
#126 = ORIENTED_EDGE ( 'NONE', *, *, #163, .F. ) ;
#127 = AXIS2_PLACEMENT_3D ( 'NONE', #22, #223, #132 ) ;
#128 = PERSON_AND_ORGANIZATION_ROLE ( 'design_owner' ) ;
#129 = CARTESIAN_POINT ( 'NONE',  ( 6.982962677686263555E-15, -2.450465380815933135E-16, 1.999999999999999112 ) ) ;
#130 = LOCAL_TIME ( 13, 44, 13.00000000000000000, #168 ) ;
#131 = EDGE_LOOP ( 'NONE', ( #141 ) ) ;
#132 = DIRECTION ( 'NONE',  ( 0.0000000000000000000, 1.000000000000000000, 0.0000000000000000000 ) ) ;
#133 =( NAMED_UNIT ( * ) SI_UNIT ( $, .STERADIAN. ) SOLID_ANGLE_UNIT ( ) );
#134 = DATE_TIME_ROLE ( 'creation_date' ) ;
#135 = CC_DESIGN_PERSON_AND_ORGANIZATION_ASSIGNMENT ( #178, #83, ( #194 ) ) ;
#136 = APPROVAL ( #54, 'UNSPECIFIED' ) ;
#137 = AXIS2_PLACEMENT_3D ( 'NONE', #75, #112, #188 ) ;
#138 = AXIS2_PLACEMENT_3D ( 'NONE', #165, #149, #53 ) ;
#139 = COORDINATED_UNIVERSAL_TIME_OFFSET ( 1, 0, .AHEAD. ) ;
#140 = ADVANCED_FACE ( 'NONE', ( #152 ), #89, .F. ) ;
#141 = ORIENTED_EDGE ( 'NONE', *, *, #171, .F. ) ;
#142 = EDGE_LOOP ( 'NONE', ( #126 ) ) ;
#143 = DESIGN_CONTEXT ( 'detailed design', #182, 'design' ) ;
#144 = APPLICATION_CONTEXT ( 'configuration controlled 3d designs of mechanical parts and assemblies' ) ;
#145 = FACE_OUTER_BOUND ( 'NONE', #40, .T. ) ;
#146 = EDGE_LOOP ( 'NONE', ( #101 ) ) ;
#147 = PLANE ( 'NONE',  #45 ) ;
#148 = CARTESIAN_POINT ( 'NONE',  ( 1.454224151837999282E-14, -5.103171969417098147E-16, 4.165063509461121249 ) ) ;
#149 = DIRECTION ( 'NONE',  ( 0.0000000000000000000, 0.0000000000000000000, 1.000000000000000000 ) ) ;
#150 = LOCAL_TIME ( 13, 44, 13.00000000000000000, #38 ) ;
#151 = PERSON_AND_ORGANIZATION ( #181, #99 ) ;
#152 = FACE_OUTER_BOUND ( 'NONE', #206, .T. ) ;
#153 = EDGE_LOOP ( 'NONE', ( #35 ) ) ;
#154 = CALENDAR_DATE ( 2021, 8, 11 ) ;
#155 = EDGE_CURVE ( 'NONE', #118, #118, #64, .T. ) ;
#156 = EDGE_CURVE ( 'NONE', #65, #65, #111, .T. ) ;
#157 = FACE_OUTER_BOUND ( 'NONE', #142, .T. ) ;
#158 = AXIS2_PLACEMENT_3D ( 'NONE', #52, #114, #190 ) ;
#159 = PRODUCT_RELATED_PRODUCT_CATEGORY ( 'detail', '', ( #67 ) ) ;
#160 = LOCAL_TIME ( 13, 44, 13.00000000000000000, #139 ) ;
#161 = ORIENTED_EDGE ( 'NONE', *, *, #155, .F. ) ;
#162 = AXIS2_PLACEMENT_3D ( 'NONE', #5, #9, #122 ) ;
#163 = EDGE_CURVE ( 'NONE', #4, #4, #49, .T. ) ;
#164 = FACE_OUTER_BOUND ( 'NONE', #73, .T. ) ;
#165 = CARTESIAN_POINT ( 'NONE',  ( 0.0000000000000000000, 0.0000000000000000000, 0.0000000000000000000 ) ) ;
#166 = EDGE_LOOP ( 'NONE', ( #77 ) ) ;
#167 = DIRECTION ( 'NONE',  ( -4.277877074299981884E-31, -1.000000000000000000, -1.225232690407967060E-16 ) ) ;
#168 = COORDINATED_UNIVERSAL_TIME_OFFSET ( 1, 0, .AHEAD. ) ;
#169 = CALENDAR_DATE ( 2021, 8, 11 ) ;
#170 = DIRECTION ( 'NONE',  ( -4.275831445896958607E-31, -1.000000000000000000, -1.224646799147353207E-16 ) ) ;
#171 = EDGE_CURVE ( 'NONE', #23, #23, #69, .T. ) ;
#172 = COORDINATED_UNIVERSAL_TIME_OFFSET ( 1, 0, .AHEAD. ) ;
#173 = SHAPE_DEFINITION_REPRESENTATION ( #179, #192 ) ;
#174 = DIRECTION ( 'NONE',  ( 0.0000000000000000000, -1.000000000000000000, 0.0000000000000000000 ) ) ;
#175 = AXIS2_PLACEMENT_3D ( 'NONE', #39, #191, #170 ) ;
#176 = PERSON_AND_ORGANIZATION ( #181, #99 ) ;
#177 = AXIS2_PLACEMENT_3D ( 'NONE', #87, #183, #217 ) ;
#178 = PERSON_AND_ORGANIZATION ( #181, #99 ) ;
#179 = PRODUCT_DEFINITION_SHAPE ( 'NONE', 'NONE',  #104 ) ;
#180 = APPROVAL_ROLE ( '' ) ;
#181 = PERSON ( 'UNSPECIFIED', 'UNSPECIFIED', 'UNSPECIFIED', ('UNSPECIFIED'), ('UNSPECIFIED'), ('UNSPECIFIED') ) ;
#182 = APPLICATION_CONTEXT ( 'configuration controlled 3d designs of mechanical parts and assemblies' ) ;
#183 = DIRECTION ( 'NONE',  ( 3.491481338843133355E-15, -1.225232690407966814E-16, 1.000000000000000000 ) ) ;
#184 = ORIENTED_EDGE ( 'NONE', *, *, #98, .F. ) ;
#185 = DIRECTION ( 'NONE',  ( 4.275831445896958607E-31, 1.000000000000000000, 1.224646799147353207E-16 ) ) ;
#186 = AXIS2_PLACEMENT_3D ( 'NONE', #148, #76, #55 ) ;
#187 = ORIENTED_EDGE ( 'NONE', *, *, #71, .T. ) ;
#188 = DIRECTION ( 'NONE',  ( -4.275831445896958607E-31, -1.000000000000000000, -1.224646799147353207E-16 ) ) ;
#189 = LOCAL_TIME ( 13, 44, 13.00000000000000000, #43 ) ;
#190 = DIRECTION ( 'NONE',  ( 4.275831445896958607E-31, 1.000000000000000000, 1.224646799147353207E-16 ) ) ;
#191 = DIRECTION ( 'NONE',  ( 3.491481338843133355E-15, -1.224646799147353207E-16, 1.000000000000000000 ) ) ;
#192 = ADVANCED_BREP_SHAPE_REPRESENTATION ( '960652', ( #66, #125, #138 ), #107 ) ;
#193 = ADVANCED_FACE ( 'NONE', ( #220, #94 ), #200, .T. ) ;
#194 = SECURITY_CLASSIFICATION ( '', '', #208 ) ;
#195 = AXIS2_PLACEMENT_3D ( 'NONE', #198, #34, #103 ) ;
#196 = CARTESIAN_POINT ( 'NONE',  ( 1.208052543239724267E-13, 1.999999999999994005, 34.60000000000000853 ) ) ;
#197 = CARTESIAN_POINT ( 'NONE',  ( 1.454224151837999282E-14, -5.103171969417098147E-16, 4.165063509461121249 ) ) ;
#198 = CARTESIAN_POINT ( 'NONE',  ( 6.982962677686266711E-15, -4.336808689942024639E-16, 2.000000000000000000 ) ) ;
#199 = APPLICATION_PROTOCOL_DEFINITION ( 'international standard', 'config_control_design', 1994, #144 ) ;
#200 = CYLINDRICAL_SURFACE ( 'NONE', #158, 1.999999999999996669 ) ;
#201 = ORIENTED_EDGE ( 'NONE', *, *, #163, .T. ) ;
#202 = AXIS2_PLACEMENT_3D ( 'NONE', #129, #79, #174 ) ;
#203 = APPROVAL_ROLE ( '' ) ;
#204 = DIRECTION ( 'NONE',  ( 3.491481338843133355E-15, -1.225232690407966814E-16, 1.000000000000000000 ) ) ;
#205 = PERSON_AND_ORGANIZATION ( #181, #99 ) ;
#206 = EDGE_LOOP ( 'NONE', ( #161 ) ) ;
#207 = ADVANCED_FACE ( 'NONE', ( #36, #164 ), #124, .T. ) ;
#208 = SECURITY_CLASSIFICATION_LEVEL ( 'unclassified' ) ;
#209 = AXIS2_PLACEMENT_3D ( 'NONE', #26, #215, #46 ) ;
#210 = CLOSED_SHELL ( 'NONE', ( #24, #207, #140 ) ) ;
#211 = CARTESIAN_POINT ( 'NONE',  ( -6.416815611449971512E-31, -0.7499999999999997780, -1.837849035611949974E-16 ) ) ;
#212 = DIRECTION ( 'NONE',  ( 0.0000000000000000000, 1.000000000000000000, 0.0000000000000000000 ) ) ;
#213 = APPROVAL_DATE_TIME ( #7, #8 ) ;
#214 = APPROVAL_PERSON_ORGANIZATION ( #90, #136, #203 ) ;
#215 = DIRECTION ( 'NONE',  ( 3.491481338843133355E-15, -1.225232690407966814E-16, 1.000000000000000000 ) ) ;
#216 = PLANE ( 'NONE',  #195 ) ;
#217 = DIRECTION ( 'NONE',  ( -4.277877074299981884E-31, -1.000000000000000000, -1.225232690407967307E-16 ) ) ;
#218 = PLANE ( 'NONE',  #137 ) ;
#219 = EDGE_LOOP ( 'NONE', ( #30 ) ) ;
#220 = FACE_OUTER_BOUND ( 'NONE', #14, .T. ) ;
#221 = AXIS2_PLACEMENT_3D ( 'NONE', #6, #44, #212 ) ;
#222 = AXIS2_PLACEMENT_3D ( 'NONE', #21, #204, #167 ) ;
#223 = DIRECTION ( 'NONE',  ( -3.491481338843133355E-15, 1.224646799147353207E-16, -1.000000000000000000 ) ) ;
ENDSEC;
END-ISO-10303-21;
