ISO-10303-21;
HEADER;
FILE_DESCRIPTION (( 'STEP AP203' ),
    '1' );
FILE_NAME ('960650.step',
    '2021-11-08T12:44:12',
    ( '' ),
    ( '' ),
    'SwSTEP 2.0',
    'SolidWorks 2019',
    '' );
FILE_SCHEMA (( 'CONFIG_CONTROL_DESIGN' ));
ENDSEC;

DATA;
#1 = EDGE_LOOP ( 'NONE', ( #20 ) ) ;
#2 = CALENDAR_DATE ( 2021, 8, 11 ) ;
#3 = CONICAL_SURFACE ( 'NONE', #186, 1.599999999999998312, 0.7853981633974512766 ) ;
#4 = EDGE_LOOP ( 'NONE', ( #62 ) ) ;
#5 = CIRCLE ( 'NONE', #125, 1.999999999999996669 ) ;
#6 = CC_DESIGN_SECURITY_CLASSIFICATION ( #139, ( #180 ) ) ;
#7 = APPROVAL_DATE_TIME ( #56, #66 ) ;
#8 = DIRECTION ( 'NONE',  ( -4.277877074299982760E-31, -1.000000000000000000, -1.225232690407966567E-16 ) ) ;
#9 = DIRECTION ( 'NONE',  ( -3.491481338843133355E-15, 1.224646799147353207E-16, -1.000000000000000000 ) ) ;
#10 = EDGE_CURVE ( 'NONE', #30, #30, #5, .T. ) ;
#11 = APPLICATION_CONTEXT ( 'configuration controlled 3d designs of mechanical parts and assemblies' ) ;
#12 = UNCERTAINTY_MEASURE_WITH_UNIT (LENGTH_MEASURE( 1.000000000000000082E-05 ), #152, 'distance_accuracy_value', 'NONE');
#13 = SECURITY_CLASSIFICATION_LEVEL ( 'unclassified' ) ;
#14 = CARTESIAN_POINT ( 'NONE',  ( -5.561240196589976361E-31, -0.6499999999999998002, -1.592802497530356562E-16 ) ) ;
#15 = DIRECTION ( 'NONE',  ( 3.491481338843133355E-15, -1.225232690407966814E-16, 1.000000000000000000 ) ) ;
#16 = CARTESIAN_POINT ( 'NONE',  ( 0.0000000000000000000, 0.0000000000000000000, 0.0000000000000000000 ) ) ;
#17 = APPLICATION_CONTEXT ( 'configuration controlled 3d designs of mechanical parts and assemblies' ) ;
#18 = COORDINATED_UNIVERSAL_TIME_OFFSET ( 1, 0, .AHEAD. ) ;
#19 = AXIS2_PLACEMENT_3D ( 'NONE', #223, #15, #184 ) ;
#20 = ORIENTED_EDGE ( 'NONE', *, *, #26, .T. ) ;
#21 = DIRECTION ( 'NONE',  ( 1.000000000000000000, 0.0000000000000000000, 0.0000000000000000000 ) ) ;
#22 = ADVANCED_FACE ( 'NONE', ( #144, #27 ), #3, .T. ) ;
#23 = ORIENTED_EDGE ( 'NONE', *, *, #175, .T. ) ;
#24 = COORDINATED_UNIVERSAL_TIME_OFFSET ( 1, 0, .AHEAD. ) ;
#25 = AXIS2_PLACEMENT_3D ( 'NONE', #114, #174, #198 ) ;
#26 = EDGE_CURVE ( 'NONE', #89, #89, #83, .T. ) ;
#27 = FACE_BOUND ( 'NONE', #135, .T. ) ;
#28 = PERSON_AND_ORGANIZATION ( #140, #111 ) ;
#29 = PLANE ( 'NONE',  #55 ) ;
#30 = VERTEX_POINT ( 'NONE', #113 ) ;
#31 = ADVANCED_FACE ( 'NONE', ( #41 ), #85, .T. ) ;
#32 = PERSON_AND_ORGANIZATION ( #140, #111 ) ;
#33 = CARTESIAN_POINT ( 'NONE',  ( 6.982962677686263555E-15, -0.6499999999999995781, 1.999999999999999112 ) ) ;
#34 = DIRECTION ( 'NONE',  ( -3.491481338843133355E-15, 1.224646799147353207E-16, -1.000000000000000000 ) ) ;
#35 = CC_DESIGN_PERSON_AND_ORGANIZATION_ASSIGNMENT ( #130, #156, ( #139 ) ) ;
#36 = DIRECTION ( 'NONE',  ( 4.275831445896958607E-31, 1.000000000000000000, 1.224646799147353207E-16 ) ) ;
#37 = FACE_OUTER_BOUND ( 'NONE', #45, .T. ) ;
#38 = PERSON_AND_ORGANIZATION_ROLE ( 'creator' ) ;
#39 = ORIENTED_EDGE ( 'NONE', *, *, #175, .F. ) ;
#40 = ORIENTED_EDGE ( 'NONE', *, *, #81, .F. ) ;
#41 = FACE_OUTER_BOUND ( 'NONE', #80, .T. ) ;
#42 = APPROVAL_STATUS ( 'not_yet_approved' ) ;
#43 = AXIS2_PLACEMENT_3D ( 'NONE', #67, #145, #214 ) ;
#44 = DIRECTION ( 'NONE',  ( 3.491481338843133355E-15, -1.225232690407966814E-16, 1.000000000000000000 ) ) ;
#45 = EDGE_LOOP ( 'NONE', ( #40 ) ) ;
#46 = LOCAL_TIME ( 13, 44, 12.00000000000000000, #151 ) ;
#47 = PLANE ( 'NONE',  #188 ) ;
#48 = DIRECTION ( 'NONE',  ( 4.275831445896958607E-31, 1.000000000000000000, 1.224646799147353207E-16 ) ) ;
#49 = CC_DESIGN_PERSON_AND_ORGANIZATION_ASSIGNMENT ( #203, #38, ( #180 ) ) ;
#50 = ADVANCED_BREP_SHAPE_REPRESENTATION ( '960650', ( #208, #64, #201 ), #87 ) ;
#51 = DATE_AND_TIME ( #221, #46 ) ;
#52 = VERTEX_POINT ( 'NONE', #150 ) ;
#53 = CYLINDRICAL_SURFACE ( 'NONE', #172, 1.999999999999996669 ) ;
#54 = DIRECTION ( 'NONE',  ( -3.491481338843133355E-15, 1.224646799147353207E-16, -1.000000000000000000 ) ) ;
#55 = AXIS2_PLACEMENT_3D ( 'NONE', #182, #70, #171 ) ;
#56 = DATE_AND_TIME ( #57, #217 ) ;
#57 = CALENDAR_DATE ( 2021, 8, 11 ) ;
#58 = CARTESIAN_POINT ( 'NONE',  ( 0.0000000000000000000, 0.0000000000000000000, 0.0000000000000000000 ) ) ;
#59 = SHAPE_DEFINITION_REPRESENTATION ( #71, #50 ) ;
#60 = LOCAL_TIME ( 13, 44, 12.00000000000000000, #24 ) ;
#61 = APPLICATION_PROTOCOL_DEFINITION ( 'international standard', 'config_control_design', 1994, #11 ) ;
#62 = ORIENTED_EDGE ( 'NONE', *, *, #10, .F. ) ;
#63 = DIRECTION ( 'NONE',  ( -3.491481338843133355E-15, 1.224646799147353207E-16, -1.000000000000000000 ) ) ;
#64 = MANIFOLD_SOLID_BREP ( 'Corps-Déplacer/Copier1[2]', #216 ) ;
#65 = DIRECTION ( 'NONE',  ( -4.275831445896958607E-31, -1.000000000000000000, -1.224646799147353207E-16 ) ) ;
#66 = APPROVAL ( #136, 'UNSPECIFIED' ) ;
#67 = CARTESIAN_POINT ( 'NONE',  ( 6.982962677686263555E-15, -2.450465380815933135E-16, 1.999999999999999112 ) ) ;
#68 = EDGE_CURVE ( 'NONE', #52, #52, #115, .T. ) ;
#69 = LOCAL_TIME ( 13, 44, 12.00000000000000000, #213 ) ;
#70 = DIRECTION ( 'NONE',  ( 3.491481338843133355E-15, -1.224646799147353207E-16, 1.000000000000000000 ) ) ;
#71 = PRODUCT_DEFINITION_SHAPE ( 'NONE', 'NONE',  #206 ) ;
#72 = CC_DESIGN_PERSON_AND_ORGANIZATION_ASSIGNMENT ( #28, #79, ( #170 ) ) ;
#73 = PERSON_AND_ORGANIZATION_ROLE ( 'creator' ) ;
#74 = PLANE ( 'NONE',  #119 ) ;
#75 = CONICAL_SURFACE ( 'NONE', #101, 1.999999999999996669, 0.5235987755982929315 ) ;
#76 = APPROVAL_DATE_TIME ( #199, #97 ) ;
#77 = DIRECTION ( 'NONE',  ( 3.491481338843133355E-15, -1.224646799147353207E-16, 1.000000000000000000 ) ) ;
#78 = FACE_OUTER_BOUND ( 'NONE', #122, .T. ) ;
#79 = PERSON_AND_ORGANIZATION_ROLE ( 'design_owner' ) ;
#80 = EDGE_LOOP ( 'NONE', ( #84 ) ) ;
#81 = EDGE_CURVE ( 'NONE', #219, #219, #163, .T. ) ;
#82 = CARTESIAN_POINT ( 'NONE',  ( 1.222018468595096801E-13, -4.286263797015736496E-15, 35.00000000000000000 ) ) ;
#83 = CIRCLE ( 'NONE', #129, 0.6499999999999998002 ) ;
#84 = ORIENTED_EDGE ( 'NONE', *, *, #81, .T. ) ;
#85 = PLANE ( 'NONE',  #166 ) ;
#86 = DIRECTION ( 'NONE',  ( 0.0000000000000000000, 1.000000000000000000, 0.0000000000000000000 ) ) ;
#87 =( GEOMETRIC_REPRESENTATION_CONTEXT ( 3 ) GLOBAL_UNCERTAINTY_ASSIGNED_CONTEXT ( ( #12 ) ) GLOBAL_UNIT_ASSIGNED_CONTEXT ( ( #152, #160, #192 ) ) REPRESENTATION_CONTEXT ( 'NONE', 'WORKASPACE' ) );
#88 = DIRECTION ( 'NONE',  ( 0.0000000000000000000, -1.000000000000000000, 0.0000000000000000000 ) ) ;
#89 = VERTEX_POINT ( 'NONE', #14 ) ;
#90 = CARTESIAN_POINT ( 'NONE',  ( 1.208052543239724267E-13, 1.999999999999994005, 34.60000000000000853 ) ) ;
#91 = VERTEX_POINT ( 'NONE', #90 ) ;
#92 = PERSON_AND_ORGANIZATION ( #140, #111 ) ;
#93 = APPROVAL_PERSON_ORGANIZATION ( #32, #66, #205 ) ;
#94 = EDGE_CURVE ( 'NONE', #91, #91, #209, .T. ) ;
#95 = ORIENTED_EDGE ( 'NONE', *, *, #68, .F. ) ;
#96 = FACE_OUTER_BOUND ( 'NONE', #4, .T. ) ;
#97 = APPROVAL ( #42, 'UNSPECIFIED' ) ;
#98 = ORIENTED_EDGE ( 'NONE', *, *, #26, .F. ) ;
#99 = DATE_AND_TIME ( #2, #60 ) ;
#100 = EDGE_LOOP ( 'NONE', ( #179 ) ) ;
#101 = AXIS2_PLACEMENT_3D ( 'NONE', #215, #183, #117 ) ;
#102 = CARTESIAN_POINT ( 'NONE',  ( 1.222018468595096801E-13, -4.286263797015736496E-15, 35.00000000000000000 ) ) ;
#103 = APPROVAL ( #157, 'UNSPECIFIED' ) ;
#104 = APPROVAL_PERSON_ORGANIZATION ( #222, #103, #127 ) ;
#105 = CALENDAR_DATE ( 2021, 8, 11 ) ;
#106 = DESIGN_CONTEXT ( 'detailed design', #17, 'design' ) ;
#107 = ADVANCED_FACE ( 'NONE', ( #120, #96 ), #75, .T. ) ;
#108 = FACE_OUTER_BOUND ( 'NONE', #204, .T. ) ;
#109 = ADVANCED_FACE ( 'NONE', ( #78 ), #29, .F. ) ;
#110 = ORIENTED_EDGE ( 'NONE', *, *, #94, .F. ) ;
#111 = ORGANIZATION ( 'UNSPECIFIED', 'UNSPECIFIED', '' ) ;
#112 = EDGE_LOOP ( 'NONE', ( #110 ) ) ;
#113 = CARTESIAN_POINT ( 'NONE',  ( 1.514698382563549368E-14, -1.999999999999997113, 4.338268590218010701 ) ) ;
#114 = CARTESIAN_POINT ( 'NONE',  ( 6.982962677686263555E-15, -2.450465380815933135E-16, 1.999999999999999112 ) ) ;
#115 = CIRCLE ( 'NONE', #196, 1.599999999999998312 ) ;
#116 = DATE_TIME_ROLE ( 'classification_date' ) ;
#117 = DIRECTION ( 'NONE',  ( 0.0000000000000000000, -1.000000000000000000, 0.0000000000000000000 ) ) ;
#118 = FACE_OUTER_BOUND ( 'NONE', #1, .T. ) ;
#119 = AXIS2_PLACEMENT_3D ( 'NONE', #165, #54, #48 ) ;
#120 = FACE_BOUND ( 'NONE', #191, .T. ) ;
#121 = CIRCLE ( 'NONE', #25, 0.6499999999999993561 ) ;
#122 = EDGE_LOOP ( 'NONE', ( #39 ) ) ;
#123 = DIRECTION ( 'NONE',  ( 0.0000000000000000000, 1.000000000000000000, 0.0000000000000000000 ) ) ;
#124 = CC_DESIGN_DATE_AND_TIME_ASSIGNMENT ( #99, #141, ( #206 ) ) ;
#125 = AXIS2_PLACEMENT_3D ( 'NONE', #211, #44, #88 ) ;
#126 = PERSON_AND_ORGANIZATION_ROLE ( 'design_supplier' ) ;
#127 = APPROVAL_ROLE ( '' ) ;
#128 = FACE_OUTER_BOUND ( 'NONE', #193, .T. ) ;
#129 = AXIS2_PLACEMENT_3D ( 'NONE', #194, #190, #8 ) ;
#130 = PERSON_AND_ORGANIZATION ( #140, #111 ) ;
#131 = DIRECTION ( 'NONE',  ( -4.275831445896958607E-31, -1.000000000000000000, -1.224646799147353207E-16 ) ) ;
#132 = COORDINATED_UNIVERSAL_TIME_OFFSET ( 1, 0, .AHEAD. ) ;
#133 = DIRECTION ( 'NONE',  ( 0.0000000000000000000, 1.000000000000000000, 0.0000000000000000000 ) ) ;
#134 = CC_DESIGN_DATE_AND_TIME_ASSIGNMENT ( #51, #116, ( #139 ) ) ;
#135 = EDGE_LOOP ( 'NONE', ( #207 ) ) ;
#136 = APPROVAL_STATUS ( 'not_yet_approved' ) ;
#137 = ADVANCED_FACE ( 'NONE', ( #169 ), #74, .F. ) ;
#138 = LOCAL_TIME ( 13, 44, 12.00000000000000000, #132 ) ;
#139 = SECURITY_CLASSIFICATION ( '', '', #13 ) ;
#140 = PERSON ( 'UNSPECIFIED', 'UNSPECIFIED', 'UNSPECIFIED', ('UNSPECIFIED'), ('UNSPECIFIED'), ('UNSPECIFIED') ) ;
#141 = DATE_TIME_ROLE ( 'creation_date' ) ;
#142 = CARTESIAN_POINT ( 'NONE',  ( 6.982962677686266711E-15, -4.336808689942024639E-16, 2.000000000000000000 ) ) ;
#143 = ADVANCED_FACE ( 'NONE', ( #118, #37 ), #185, .T. ) ;
#144 = FACE_OUTER_BOUND ( 'NONE', #112, .T. ) ;
#145 = DIRECTION ( 'NONE',  ( 3.491481338843133355E-15, -1.225232690407966814E-16, 1.000000000000000000 ) ) ;
#146 = CC_DESIGN_APPROVAL ( #66, ( #139 ) ) ;
#147 = PRODUCT_RELATED_PRODUCT_CATEGORY ( 'detail', '', ( #170 ) ) ;
#148 = APPROVAL_ROLE ( '' ) ;
#149 = FACE_OUTER_BOUND ( 'NONE', #100, .T. ) ;
#150 = CARTESIAN_POINT ( 'NONE',  ( 1.222018468595096801E-13, 1.599999999999994094, 35.00000000000000000 ) ) ;
#151 = COORDINATED_UNIVERSAL_TIME_OFFSET ( 1, 0, .AHEAD. ) ;
#152 =( LENGTH_UNIT ( ) NAMED_UNIT ( * ) SI_UNIT ( .MILLI., .METRE. ) );
#153 = VERTEX_POINT ( 'NONE', #202 ) ;
#154 = CC_DESIGN_APPROVAL ( #103, ( #206 ) ) ;
#155 = CC_DESIGN_APPROVAL ( #97, ( #180 ) ) ;
#156 = PERSON_AND_ORGANIZATION_ROLE ( 'classification_officer' ) ;
#157 = APPROVAL_STATUS ( 'not_yet_approved' ) ;
#158 = ADVANCED_FACE ( 'NONE', ( #149, #128 ), #53, .T. ) ;
#159 = CARTESIAN_POINT ( 'NONE',  ( 1.208052543239724267E-13, -4.237277925049843068E-15, 34.60000000000000853 ) ) ;
#160 =( NAMED_UNIT ( * ) PLANE_ANGLE_UNIT ( ) SI_UNIT ( $, .RADIAN. ) );
#161 = ADVANCED_FACE ( 'NONE', ( #108 ), #47, .F. ) ;
#162 = PERSON_AND_ORGANIZATION ( #140, #111 ) ;
#163 = CIRCLE ( 'NONE', #43, 0.6499999999999993561 ) ;
#164 = DATE_AND_TIME ( #105, #138 ) ;
#165 = CARTESIAN_POINT ( 'NONE',  ( 1.222018468595096801E-13, 1.199807826129478286E-32, 35.00000000000000000 ) ) ;
#166 = AXIS2_PLACEMENT_3D ( 'NONE', #142, #212, #65 ) ;
#167 = CC_DESIGN_PERSON_AND_ORGANIZATION_ASSIGNMENT ( #220, #73, ( #206 ) ) ;
#168 = APPLICATION_PROTOCOL_DEFINITION ( 'international standard', 'config_control_design', 1994, #17 ) ;
#169 = FACE_OUTER_BOUND ( 'NONE', #210, .T. ) ;
#170 = PRODUCT ( '960650', '960650', '', ( #173 ) ) ;
#171 = DIRECTION ( 'NONE',  ( -4.275831445896958607E-31, -1.000000000000000000, -1.224646799147353207E-16 ) ) ;
#172 = AXIS2_PLACEMENT_3D ( 'NONE', #16, #197, #36 ) ;
#173 = MECHANICAL_CONTEXT ( 'NONE', #11, 'mechanical' ) ;
#174 = DIRECTION ( 'NONE',  ( 3.491481338843133355E-15, -1.225232690407966814E-16, 1.000000000000000000 ) ) ;
#175 = EDGE_CURVE ( 'NONE', #153, #153, #121, .T. ) ;
#176 = ORIENTED_EDGE ( 'NONE', *, *, #10, .T. ) ;
#177 = AXIS2_PLACEMENT_3D ( 'NONE', #159, #34, #133 ) ;
#178 = DIRECTION ( 'NONE',  ( 0.0000000000000000000, 0.0000000000000000000, 1.000000000000000000 ) ) ;
#179 = ORIENTED_EDGE ( 'NONE', *, *, #94, .T. ) ;
#180 = PRODUCT_DEFINITION_FORMATION_WITH_SPECIFIED_SOURCE ( 'ANY', '', #170, .NOT_KNOWN. ) ;
#181 = CALENDAR_DATE ( 2021, 8, 11 ) ;
#182 = CARTESIAN_POINT ( 'NONE',  ( 6.982962677686266711E-15, -4.336808689942024639E-16, 2.000000000000000000 ) ) ;
#183 = DIRECTION ( 'NONE',  ( 3.491481338843133355E-15, -1.225232690407966814E-16, 1.000000000000000000 ) ) ;
#184 = DIRECTION ( 'NONE',  ( -4.277877074299983636E-31, -1.000000000000000000, -1.225232690407966321E-16 ) ) ;
#185 = CYLINDRICAL_SURFACE ( 'NONE', #19, 0.6499999999999995781 ) ;
#186 = AXIS2_PLACEMENT_3D ( 'NONE', #82, #63, #123 ) ;
#187 = CC_DESIGN_PERSON_AND_ORGANIZATION_ASSIGNMENT ( #92, #126, ( #180 ) ) ;
#188 = AXIS2_PLACEMENT_3D ( 'NONE', #200, #77, #131 ) ;
#189 = APPROVAL_PERSON_ORGANIZATION ( #162, #97, #148 ) ;
#190 = DIRECTION ( 'NONE',  ( 3.491481338843133355E-15, -1.225232690407966814E-16, 1.000000000000000000 ) ) ;
#191 = EDGE_LOOP ( 'NONE', ( #23 ) ) ;
#192 =( NAMED_UNIT ( * ) SI_UNIT ( $, .STERADIAN. ) SOLID_ANGLE_UNIT ( ) );
#193 = EDGE_LOOP ( 'NONE', ( #176 ) ) ;
#194 = CARTESIAN_POINT ( 'NONE',  ( -2.780620098294988619E-31, -6.133668331392877974E-32, -7.964012487651785276E-17 ) ) ;
#195 = CLOSED_SHELL ( 'NONE', ( #158, #22, #137, #107, #109 ) ) ;
#196 = AXIS2_PLACEMENT_3D ( 'NONE', #102, #9, #86 ) ;
#197 = DIRECTION ( 'NONE',  ( -3.491481338843133355E-15, 1.224646799147353207E-16, -1.000000000000000000 ) ) ;
#198 = DIRECTION ( 'NONE',  ( 0.0000000000000000000, -1.000000000000000000, 0.0000000000000000000 ) ) ;
#199 = DATE_AND_TIME ( #181, #69 ) ;
#200 = CARTESIAN_POINT ( 'NONE',  ( -8.551700045867646674E-31, 2.999532597218505004E-32, -2.449304239644358043E-16 ) ) ;
#201 = AXIS2_PLACEMENT_3D ( 'NONE', #58, #178, #21 ) ;
#202 = CARTESIAN_POINT ( 'NONE',  ( 6.982962677686263555E-15, -0.6499999999999995781, 1.999999999999999112 ) ) ;
#203 = PERSON_AND_ORGANIZATION ( #140, #111 ) ;
#204 = EDGE_LOOP ( 'NONE', ( #98 ) ) ;
#205 = APPROVAL_ROLE ( '' ) ;
#206 = PRODUCT_DEFINITION ( 'UNKNOWN', '', #180, #106 ) ;
#207 = ORIENTED_EDGE ( 'NONE', *, *, #68, .T. ) ;
#208 = MANIFOLD_SOLID_BREP ( 'Corps-Déplacer/Copier1[1]', #195 ) ;
#209 = CIRCLE ( 'NONE', #177, 1.999999999999998224 ) ;
#210 = EDGE_LOOP ( 'NONE', ( #95 ) ) ;
#211 = CARTESIAN_POINT ( 'NONE',  ( 1.514698382563549368E-14, -5.315388496505192018E-16, 4.338268590218010701 ) ) ;
#212 = DIRECTION ( 'NONE',  ( 3.491481338843133355E-15, -1.224646799147353207E-16, 1.000000000000000000 ) ) ;
#213 = COORDINATED_UNIVERSAL_TIME_OFFSET ( 1, 0, .AHEAD. ) ;
#214 = DIRECTION ( 'NONE',  ( 0.0000000000000000000, -1.000000000000000000, 0.0000000000000000000 ) ) ;
#215 = CARTESIAN_POINT ( 'NONE',  ( 1.514698382563549368E-14, -5.315388496505192018E-16, 4.338268590218010701 ) ) ;
#216 = CLOSED_SHELL ( 'NONE', ( #31, #143, #161 ) ) ;
#217 = LOCAL_TIME ( 13, 44, 12.00000000000000000, #18 ) ;
#218 = APPROVAL_DATE_TIME ( #164, #103 ) ;
#219 = VERTEX_POINT ( 'NONE', #33 ) ;
#220 = PERSON_AND_ORGANIZATION ( #140, #111 ) ;
#221 = CALENDAR_DATE ( 2021, 8, 11 ) ;
#222 = PERSON_AND_ORGANIZATION ( #140, #111 ) ;
#223 = CARTESIAN_POINT ( 'NONE',  ( -2.025941305359930978E-30, 0.0000000000000000000, -5.802526517387047816E-16 ) ) ;
ENDSEC;
END-ISO-10303-21;
