ISO-10303-21;
HEADER;
FILE_DESCRIPTION (( 'STEP AP203' ),
    '1' );
FILE_NAME ('960648.step',
    '2021-11-08T12:44:11',
    ( '' ),
    ( '' ),
    'SwSTEP 2.0',
    'SolidWorks 2019',
    '' );
FILE_SCHEMA (( 'CONFIG_CONTROL_DESIGN' ));
ENDSEC;

DATA;
#1 = CARTESIAN_POINT ( 'NONE',  ( 0.0000000000000000000, 0.0000000000000000000, 0.0000000000000000000 ) ) ;
#2 = ORIENTED_EDGE ( 'NONE', *, *, #181, .T. ) ;
#3 = FACE_OUTER_BOUND ( 'NONE', #155, .T. ) ;
#4 = APPROVAL ( #131, 'UNSPECIFIED' ) ;
#5 = EDGE_LOOP ( 'NONE', ( #137 ) ) ;
#6 = DIRECTION ( 'NONE',  ( -4.275831445896958607E-31, -1.000000000000000000, -1.224646799147353207E-16 ) ) ;
#7 = CC_DESIGN_PERSON_AND_ORGANIZATION_ASSIGNMENT ( #222, #182, ( #17 ) ) ;
#8 = EDGE_LOOP ( 'NONE', ( #20 ) ) ;
#9 = PERSON_AND_ORGANIZATION_ROLE ( 'classification_officer' ) ;
#10 = DATE_AND_TIME ( #111, #190 ) ;
#11 = UNCERTAINTY_MEASURE_WITH_UNIT (LENGTH_MEASURE( 1.000000000000000082E-05 ), #150, 'distance_accuracy_value', 'NONE');
#12 = APPROVAL_ROLE ( '' ) ;
#13 = CC_DESIGN_DATE_AND_TIME_ASSIGNMENT ( #10, #216, ( #163 ) ) ;
#14 = CIRCLE ( 'NONE', #204, 0.5499999999999999334 ) ;
#15 = ADVANCED_FACE ( 'NONE', ( #3, #87 ), #105, .T. ) ;
#16 = DIRECTION ( 'NONE',  ( 3.491481338843133355E-15, -1.225232690407966814E-16, 1.000000000000000000 ) ) ;
#17 = PRODUCT_DEFINITION_FORMATION_WITH_SPECIFIED_SOURCE ( 'ANY', '', #56, .NOT_KNOWN. ) ;
#18 = EDGE_LOOP ( 'NONE', ( #139 ) ) ;
#19 = DIRECTION ( 'NONE',  ( -4.275831445896958607E-31, -1.000000000000000000, -1.224646799147353207E-16 ) ) ;
#20 = ORIENTED_EDGE ( 'NONE', *, *, #197, .T. ) ;
#21 = COORDINATED_UNIVERSAL_TIME_OFFSET ( 1, 0, .AHEAD. ) ;
#22 = VERTEX_POINT ( 'NONE', #25 ) ;
#23 = CLOSED_SHELL ( 'NONE', ( #96, #15, #82 ) ) ;
#24 = APPROVAL_DATE_TIME ( #45, #4 ) ;
#25 = CARTESIAN_POINT ( 'NONE',  ( 6.982962677686263555E-15, -0.5500000000000001554, 1.999999999999999112 ) ) ;
#26 = PERSON_AND_ORGANIZATION ( #107, #37 ) ;
#27 = APPLICATION_PROTOCOL_DEFINITION ( 'international standard', 'config_control_design', 1994, #154 ) ;
#28 = ADVANCED_FACE ( 'NONE', ( #90, #192 ), #140, .T. ) ;
#29 =( GEOMETRIC_REPRESENTATION_CONTEXT ( 3 ) GLOBAL_UNCERTAINTY_ASSIGNED_CONTEXT ( ( #11 ) ) GLOBAL_UNIT_ASSIGNED_CONTEXT ( ( #150, #203, #80 ) ) REPRESENTATION_CONTEXT ( 'NONE', 'WORKASPACE' ) );
#30 = DIRECTION ( 'NONE',  ( -3.491481338843133355E-15, 1.224646799147353207E-16, -1.000000000000000000 ) ) ;
#31 = DIRECTION ( 'NONE',  ( 3.491481338843133355E-15, -1.225232690407966814E-16, 1.000000000000000000 ) ) ;
#32 = CC_DESIGN_APPROVAL ( #4, ( #17 ) ) ;
#33 = DIRECTION ( 'NONE',  ( 3.491481338843133355E-15, -1.225232690407966814E-16, 1.000000000000000000 ) ) ;
#34 = EDGE_LOOP ( 'NONE', ( #194 ) ) ;
#35 = CC_DESIGN_SECURITY_CLASSIFICATION ( #163, ( #17 ) ) ;
#36 = CARTESIAN_POINT ( 'NONE',  ( -2.025941305359930978E-30, 0.0000000000000000000, -5.802526517387047816E-16 ) ) ;
#37 = ORGANIZATION ( 'UNSPECIFIED', 'UNSPECIFIED', '' ) ;
#38 = FACE_OUTER_BOUND ( 'NONE', #34, .T. ) ;
#39 = DATE_AND_TIME ( #170, #73 ) ;
#40 = ADVANCED_FACE ( 'NONE', ( #108, #117 ), #65, .T. ) ;
#41 = DIRECTION ( 'NONE',  ( -3.491481338843133355E-15, 1.224646799147353207E-16, -1.000000000000000000 ) ) ;
#42 = AXIS2_PLACEMENT_3D ( 'NONE', #193, #86, #19 ) ;
#43 = APPLICATION_PROTOCOL_DEFINITION ( 'international standard', 'config_control_design', 1994, #133 ) ;
#44 = DIRECTION ( 'NONE',  ( 0.0000000000000000000, 1.000000000000000000, 0.0000000000000000000 ) ) ;
#45 = DATE_AND_TIME ( #148, #103 ) ;
#46 = PERSON_AND_ORGANIZATION ( #107, #37 ) ;
#47 = CARTESIAN_POINT ( 'NONE',  ( 6.982962677686263555E-15, -0.5500000000000001554, 1.999999999999999112 ) ) ;
#48 = CARTESIAN_POINT ( 'NONE',  ( 1.222018468595096801E-13, 1.599999999999994094, 35.00000000000000000 ) ) ;
#49 = ORIENTED_EDGE ( 'NONE', *, *, #70, .F. ) ;
#50 = EDGE_LOOP ( 'NONE', ( #2 ) ) ;
#51 = ORIENTED_EDGE ( 'NONE', *, *, #124, .T. ) ;
#52 = EDGE_LOOP ( 'NONE', ( #123 ) ) ;
#53 = EDGE_LOOP ( 'NONE', ( #68 ) ) ;
#54 = APPROVAL_PERSON_ORGANIZATION ( #46, #129, #12 ) ;
#55 = EDGE_LOOP ( 'NONE', ( #119 ) ) ;
#56 = PRODUCT ( '960648', '960648', '', ( #196 ) ) ;
#57 = DIRECTION ( 'NONE',  ( 0.0000000000000000000, 0.0000000000000000000, 1.000000000000000000 ) ) ;
#58 = APPROVAL_PERSON_ORGANIZATION ( #99, #145, #168 ) ;
#59 = APPROVAL_ROLE ( '' ) ;
#60 = COORDINATED_UNIVERSAL_TIME_OFFSET ( 1, 0, .AHEAD. ) ;
#61 = DIRECTION ( 'NONE',  ( 3.491481338843133355E-15, -1.224646799147353207E-16, 1.000000000000000000 ) ) ;
#62 = PERSON_AND_ORGANIZATION ( #107, #37 ) ;
#63 = DIRECTION ( 'NONE',  ( -3.491481338843133355E-15, 1.224646799147353207E-16, -1.000000000000000000 ) ) ;
#64 = CC_DESIGN_DATE_AND_TIME_ASSIGNMENT ( #92, #185, ( #88 ) ) ;
#65 = CONICAL_SURFACE ( 'NONE', #209, 1.599999999999998312, 0.7853981633974512766 ) ;
#66 = DIRECTION ( 'NONE',  ( -4.277877074299981008E-31, -1.000000000000000000, -1.225232690407967060E-16 ) ) ;
#67 = CARTESIAN_POINT ( 'NONE',  ( 1.222018468595096801E-13, 1.199807826129478286E-32, 35.00000000000000000 ) ) ;
#68 = ORIENTED_EDGE ( 'NONE', *, *, #197, .F. ) ;
#69 = FACE_OUTER_BOUND ( 'NONE', #50, .T. ) ;
#70 = EDGE_CURVE ( 'NONE', #160, #160, #121, .T. ) ;
#71 = CIRCLE ( 'NONE', #132, 0.5499999999999999334 ) ;
#72 = PLANE ( 'NONE',  #98 ) ;
#73 = LOCAL_TIME ( 13, 44, 11.00000000000000000, #220 ) ;
#74 = AXIS2_PLACEMENT_3D ( 'NONE', #149, #199, #130 ) ;
#75 = CC_DESIGN_PERSON_AND_ORGANIZATION_ASSIGNMENT ( #62, #9, ( #163 ) ) ;
#76 = APPROVAL_DATE_TIME ( #200, #129 ) ;
#77 = PERSON_AND_ORGANIZATION_ROLE ( 'design_owner' ) ;
#78 = DIRECTION ( 'NONE',  ( -4.275831445896958607E-31, -1.000000000000000000, -1.224646799147353207E-16 ) ) ;
#79 = CARTESIAN_POINT ( 'NONE',  ( 1.575172613289099139E-14, -1.999999999999997113, 4.511473670974901040 ) ) ;
#80 =( NAMED_UNIT ( * ) SI_UNIT ( $, .STERADIAN. ) SOLID_ANGLE_UNIT ( ) );
#81 = CARTESIAN_POINT ( 'NONE',  ( 1.208052543239724267E-13, 1.999999999999994005, 34.60000000000000853 ) ) ;
#82 = ADVANCED_FACE ( 'NONE', ( #122 ), #178, .F. ) ;
#83 = VERTEX_POINT ( 'NONE', #81 ) ;
#84 = FACE_OUTER_BOUND ( 'NONE', #143, .T. ) ;
#85 = CC_DESIGN_APPROVAL ( #129, ( #88 ) ) ;
#86 = DIRECTION ( 'NONE',  ( 3.491481338843133355E-15, -1.224646799147353207E-16, 1.000000000000000000 ) ) ;
#87 = FACE_OUTER_BOUND ( 'NONE', #53, .T. ) ;
#88 = PRODUCT_DEFINITION ( 'UNKNOWN', '', #17, #146 ) ;
#89 = FACE_OUTER_BOUND ( 'NONE', #8, .T. ) ;
#90 = FACE_BOUND ( 'NONE', #55, .T. ) ;
#91 = PRODUCT_RELATED_PRODUCT_CATEGORY ( 'detail', '', ( #56 ) ) ;
#92 = DATE_AND_TIME ( #97, #213 ) ;
#93 = CLOSED_SHELL ( 'NONE', ( #110, #40, #116, #28, #152 ) ) ;
#94 = PERSON_AND_ORGANIZATION ( #107, #37 ) ;
#95 = SHAPE_DEFINITION_REPRESENTATION ( #153, #188 ) ;
#96 = ADVANCED_FACE ( 'NONE', ( #89 ), #191, .T. ) ;
#97 = CALENDAR_DATE ( 2021, 8, 11 ) ;
#98 = AXIS2_PLACEMENT_3D ( 'NONE', #221, #61, #78 ) ;
#99 = PERSON_AND_ORGANIZATION ( #107, #37 ) ;
#100 = CARTESIAN_POINT ( 'NONE',  ( 6.982962677686263555E-15, -2.450465380815933135E-16, 1.999999999999999112 ) ) ;
#101 = DIRECTION ( 'NONE',  ( 4.275831445896958607E-31, 1.000000000000000000, 1.224646799147353207E-16 ) ) ;
#102 = ORIENTED_EDGE ( 'NONE', *, *, #70, .T. ) ;
#103 = LOCAL_TIME ( 13, 44, 11.00000000000000000, #183 ) ;
#104 = DIRECTION ( 'NONE',  ( 0.0000000000000000000, -1.000000000000000000, 0.0000000000000000000 ) ) ;
#105 = CYLINDRICAL_SURFACE ( 'NONE', #180, 0.5499999999999998224 ) ;
#106 = CC_DESIGN_APPROVAL ( #145, ( #163 ) ) ;
#107 = PERSON ( 'UNSPECIFIED', 'UNSPECIFIED', 'UNSPECIFIED', ('UNSPECIFIED'), ('UNSPECIFIED'), ('UNSPECIFIED') ) ;
#108 = FACE_OUTER_BOUND ( 'NONE', #214, .T. ) ;
#109 = COORDINATED_UNIVERSAL_TIME_OFFSET ( 1, 0, .AHEAD. ) ;
#110 = ADVANCED_FACE ( 'NONE', ( #84, #69 ), #141, .T. ) ;
#111 = CALENDAR_DATE ( 2021, 8, 11 ) ;
#112 = PERSON_AND_ORGANIZATION_ROLE ( 'creator' ) ;
#113 = APPROVAL_STATUS ( 'not_yet_approved' ) ;
#114 = CIRCLE ( 'NONE', #218, 1.999999999999998224 ) ;
#115 = DIRECTION ( 'NONE',  ( -3.491481338843133355E-15, 1.224646799147353207E-16, -1.000000000000000000 ) ) ;
#116 = ADVANCED_FACE ( 'NONE', ( #189 ), #174, .F. ) ;
#117 = FACE_BOUND ( 'NONE', #18, .T. ) ;
#118 = DIRECTION ( 'NONE',  ( 3.491481338843133355E-15, -1.224646799147353207E-16, 1.000000000000000000 ) ) ;
#119 = ORIENTED_EDGE ( 'NONE', *, *, #120, .T. ) ;
#120 = EDGE_CURVE ( 'NONE', #22, #22, #14, .T. ) ;
#121 = CIRCLE ( 'NONE', #136, 0.5499999999999997113 ) ;
#122 = FACE_OUTER_BOUND ( 'NONE', #207, .T. ) ;
#123 = ORIENTED_EDGE ( 'NONE', *, *, #181, .F. ) ;
#124 = EDGE_CURVE ( 'NONE', #83, #83, #114, .T. ) ;
#125 = APPROVAL_DATE_TIME ( #39, #145 ) ;
#126 = PERSON_AND_ORGANIZATION_ROLE ( 'creator' ) ;
#127 = CIRCLE ( 'NONE', #151, 1.599999999999998312 ) ;
#128 = DIRECTION ( 'NONE',  ( 1.000000000000000000, 0.0000000000000000000, 0.0000000000000000000 ) ) ;
#129 = APPROVAL ( #113, 'UNSPECIFIED' ) ;
#130 = DIRECTION ( 'NONE',  ( 0.0000000000000000000, -1.000000000000000000, 0.0000000000000000000 ) ) ;
#131 = APPROVAL_STATUS ( 'not_yet_approved' ) ;
#132 = AXIS2_PLACEMENT_3D ( 'NONE', #100, #175, #142 ) ;
#133 = APPLICATION_CONTEXT ( 'configuration controlled 3d designs of mechanical parts and assemblies' ) ;
#134 = VERTEX_POINT ( 'NONE', #47 ) ;
#135 = DIRECTION ( 'NONE',  ( -3.491481338843133355E-15, 1.224646799147353207E-16, -1.000000000000000000 ) ) ;
#136 = AXIS2_PLACEMENT_3D ( 'NONE', #157, #31, #66 ) ;
#137 = ORIENTED_EDGE ( 'NONE', *, *, #162, .F. ) ;
#138 = DIRECTION ( 'NONE',  ( 0.0000000000000000000, -1.000000000000000000, 0.0000000000000000000 ) ) ;
#139 = ORIENTED_EDGE ( 'NONE', *, *, #162, .T. ) ;
#140 = CONICAL_SURFACE ( 'NONE', #144, 1.999999999999996669, 0.5235987755982928205 ) ;
#141 = CYLINDRICAL_SURFACE ( 'NONE', #195, 1.999999999999996669 ) ;
#142 = DIRECTION ( 'NONE',  ( 0.0000000000000000000, -1.000000000000000000, 0.0000000000000000000 ) ) ;
#143 = EDGE_LOOP ( 'NONE', ( #51 ) ) ;
#144 = AXIS2_PLACEMENT_3D ( 'NONE', #205, #206, #104 ) ;
#145 = APPROVAL ( #198, 'UNSPECIFIED' ) ;
#146 = DESIGN_CONTEXT ( 'detailed design', #133, 'design' ) ;
#147 = PERSON_AND_ORGANIZATION ( #107, #37 ) ;
#148 = CALENDAR_DATE ( 2021, 8, 11 ) ;
#149 = CARTESIAN_POINT ( 'NONE',  ( 1.575172613289099139E-14, -5.527605023593284903E-16, 4.511473670974901040 ) ) ;
#150 =( LENGTH_UNIT ( ) NAMED_UNIT ( * ) SI_UNIT ( .MILLI., .METRE. ) );
#151 = AXIS2_PLACEMENT_3D ( 'NONE', #202, #115, #219 ) ;
#152 = ADVANCED_FACE ( 'NONE', ( #38 ), #72, .F. ) ;
#153 = PRODUCT_DEFINITION_SHAPE ( 'NONE', 'NONE',  #88 ) ;
#154 = APPLICATION_CONTEXT ( 'configuration controlled 3d designs of mechanical parts and assemblies' ) ;
#155 = EDGE_LOOP ( 'NONE', ( #102 ) ) ;
#156 = DIRECTION ( 'NONE',  ( 4.275831445896958607E-31, 1.000000000000000000, 1.224646799147353207E-16 ) ) ;
#157 = CARTESIAN_POINT ( 'NONE',  ( -2.352832390864987540E-31, -6.283787845957312646E-32, -6.738779797243810820E-17 ) ) ;
#158 = CARTESIAN_POINT ( 'NONE',  ( 6.982962677686266711E-15, -4.336808689942024639E-16, 2.000000000000000000 ) ) ;
#159 = AXIS2_PLACEMENT_3D ( 'NONE', #187, #57, #128 ) ;
#160 = VERTEX_POINT ( 'NONE', #215 ) ;
#161 = CC_DESIGN_PERSON_AND_ORGANIZATION_ASSIGNMENT ( #164, #112, ( #17 ) ) ;
#162 = EDGE_CURVE ( 'NONE', #172, #172, #127, .T. ) ;
#163 = SECURITY_CLASSIFICATION ( '', '', #184 ) ;
#164 = PERSON_AND_ORGANIZATION ( #107, #37 ) ;
#165 = MANIFOLD_SOLID_BREP ( 'Corps-Déplacer/Copier1[2]', #23 ) ;
#166 = CALENDAR_DATE ( 2021, 8, 11 ) ;
#167 = MANIFOLD_SOLID_BREP ( 'Corps-Déplacer/Copier1[1]', #93 ) ;
#168 = APPROVAL_ROLE ( '' ) ;
#169 = AXIS2_PLACEMENT_3D ( 'NONE', #67, #30, #101 ) ;
#170 = CALENDAR_DATE ( 2021, 8, 11 ) ;
#171 = CIRCLE ( 'NONE', #74, 1.999999999999996669 ) ;
#172 = VERTEX_POINT ( 'NONE', #48 ) ;
#173 = CARTESIAN_POINT ( 'NONE',  ( 6.982962677686263555E-15, -2.450465380815933135E-16, 1.999999999999999112 ) ) ;
#174 = PLANE ( 'NONE',  #169 ) ;
#175 = DIRECTION ( 'NONE',  ( 3.491481338843133355E-15, -1.225232690407966814E-16, 1.000000000000000000 ) ) ;
#176 = ORIENTED_EDGE ( 'NONE', *, *, #124, .F. ) ;
#177 = CARTESIAN_POINT ( 'NONE',  ( 1.222018468595096801E-13, -4.286263797015736496E-15, 35.00000000000000000 ) ) ;
#178 = PLANE ( 'NONE',  #42 ) ;
#179 = AXIS2_PLACEMENT_3D ( 'NONE', #158, #118, #6 ) ;
#180 = AXIS2_PLACEMENT_3D ( 'NONE', #36, #33, #208 ) ;
#181 = EDGE_CURVE ( 'NONE', #223, #223, #171, .T. ) ;
#182 = PERSON_AND_ORGANIZATION_ROLE ( 'design_supplier' ) ;
#183 = COORDINATED_UNIVERSAL_TIME_OFFSET ( 1, 0, .AHEAD. ) ;
#184 = SECURITY_CLASSIFICATION_LEVEL ( 'unclassified' ) ;
#185 = DATE_TIME_ROLE ( 'creation_date' ) ;
#186 = LOCAL_TIME ( 13, 44, 11.00000000000000000, #21 ) ;
#187 = CARTESIAN_POINT ( 'NONE',  ( 0.0000000000000000000, 0.0000000000000000000, 0.0000000000000000000 ) ) ;
#188 = ADVANCED_BREP_SHAPE_REPRESENTATION ( '960648', ( #167, #165, #159 ), #29 ) ;
#189 = FACE_OUTER_BOUND ( 'NONE', #5, .T. ) ;
#190 = LOCAL_TIME ( 13, 44, 11.00000000000000000, #109 ) ;
#191 = PLANE ( 'NONE',  #179 ) ;
#192 = FACE_OUTER_BOUND ( 'NONE', #52, .T. ) ;
#193 = CARTESIAN_POINT ( 'NONE',  ( -8.551700045867646674E-31, 2.999532597218505004E-32, -2.449304239644358043E-16 ) ) ;
#194 = ORIENTED_EDGE ( 'NONE', *, *, #120, .F. ) ;
#195 = AXIS2_PLACEMENT_3D ( 'NONE', #1, #135, #156 ) ;
#196 = MECHANICAL_CONTEXT ( 'NONE', #154, 'mechanical' ) ;
#197 = EDGE_CURVE ( 'NONE', #134, #134, #71, .T. ) ;
#198 = APPROVAL_STATUS ( 'not_yet_approved' ) ;
#199 = DIRECTION ( 'NONE',  ( 3.491481338843133355E-15, -1.225232690407966814E-16, 1.000000000000000000 ) ) ;
#200 = DATE_AND_TIME ( #166, #186 ) ;
#201 = APPROVAL_PERSON_ORGANIZATION ( #26, #4, #59 ) ;
#202 = CARTESIAN_POINT ( 'NONE',  ( 1.222018468595096801E-13, -4.286263797015736496E-15, 35.00000000000000000 ) ) ;
#203 =( NAMED_UNIT ( * ) PLANE_ANGLE_UNIT ( ) SI_UNIT ( $, .RADIAN. ) );
#204 = AXIS2_PLACEMENT_3D ( 'NONE', #173, #16, #138 ) ;
#205 = CARTESIAN_POINT ( 'NONE',  ( 1.575172613289099139E-14, -5.527605023593284903E-16, 4.511473670974901040 ) ) ;
#206 = DIRECTION ( 'NONE',  ( 3.491481338843133355E-15, -1.225232690407966814E-16, 1.000000000000000000 ) ) ;
#207 = EDGE_LOOP ( 'NONE', ( #49 ) ) ;
#208 = DIRECTION ( 'NONE',  ( -4.277877074299981884E-31, -1.000000000000000000, -1.225232690407966074E-16 ) ) ;
#209 = AXIS2_PLACEMENT_3D ( 'NONE', #177, #63, #210 ) ;
#210 = DIRECTION ( 'NONE',  ( 0.0000000000000000000, 1.000000000000000000, 0.0000000000000000000 ) ) ;
#211 = CARTESIAN_POINT ( 'NONE',  ( 1.208052543239724267E-13, -4.237277925049843068E-15, 34.60000000000000853 ) ) ;
#212 = CC_DESIGN_PERSON_AND_ORGANIZATION_ASSIGNMENT ( #147, #126, ( #88 ) ) ;
#213 = LOCAL_TIME ( 13, 44, 11.00000000000000000, #60 ) ;
#214 = EDGE_LOOP ( 'NONE', ( #176 ) ) ;
#215 = CARTESIAN_POINT ( 'NONE',  ( -4.705664781729975956E-31, -0.5499999999999997113, -1.347755959448762657E-16 ) ) ;
#216 = DATE_TIME_ROLE ( 'classification_date' ) ;
#217 = CC_DESIGN_PERSON_AND_ORGANIZATION_ASSIGNMENT ( #94, #77, ( #56 ) ) ;
#218 = AXIS2_PLACEMENT_3D ( 'NONE', #211, #41, #44 ) ;
#219 = DIRECTION ( 'NONE',  ( 0.0000000000000000000, 1.000000000000000000, 0.0000000000000000000 ) ) ;
#220 = COORDINATED_UNIVERSAL_TIME_OFFSET ( 1, 0, .AHEAD. ) ;
#221 = CARTESIAN_POINT ( 'NONE',  ( 6.982962677686266711E-15, -4.336808689942024639E-16, 2.000000000000000000 ) ) ;
#222 = PERSON_AND_ORGANIZATION ( #107, #37 ) ;
#223 = VERTEX_POINT ( 'NONE', #79 ) ;
ENDSEC;
END-ISO-10303-21;
