ISO-10303-21;
HEADER;
FILE_DESCRIPTION (( 'STEP AP203' ),
    '1' );
FILE_NAME ('960647.step',
    '2021-11-08T12:44:10',
    ( '' ),
    ( '' ),
    'SwSTEP 2.0',
    'SolidWorks 2019',
    '' );
FILE_SCHEMA (( 'CONFIG_CONTROL_DESIGN' ));
ENDSEC;

DATA;
#1 = COORDINATED_UNIVERSAL_TIME_OFFSET ( 1, 0, .AHEAD. ) ;
#2 = AXIS2_PLACEMENT_3D ( 'NONE', #163, #199, #180 ) ;
#3 = PERSON_AND_ORGANIZATION_ROLE ( 'creator' ) ;
#4 = APPROVAL_ROLE ( '' ) ;
#5 = CARTESIAN_POINT ( 'NONE',  ( 5.237222008264699244E-15, -1.626303258728260102E-16, 1.499999999999999778 ) ) ;
#6 = APPROVAL ( #179, 'UNSPECIFIED' ) ;
#7 =( NAMED_UNIT ( * ) SI_UNIT ( $, .STERADIAN. ) SOLID_ANGLE_UNIT ( ) );
#8 = FACE_OUTER_BOUND ( 'NONE', #171, .T. ) ;
#9 = AXIS2_PLACEMENT_3D ( 'NONE', #184, #168, #127 ) ;
#10 = CALENDAR_DATE ( 2021, 8, 11 ) ;
#11 = CARTESIAN_POINT ( 'NONE',  ( 1.430835661709717515E-14, -5.021096941933349418E-16, 4.098076211353346210 ) ) ;
#12 = ADVANCED_FACE ( 'NONE', ( #15 ), #159, .F. ) ;
#13 = PLANE ( 'NONE',  #152 ) ;
#14 = AXIS2_PLACEMENT_3D ( 'NONE', #82, #66, #135 ) ;
#15 = FACE_OUTER_BOUND ( 'NONE', #106, .T. ) ;
#16 = ORGANIZATION ( 'UNSPECIFIED', 'UNSPECIFIED', '' ) ;
#17 = CC_DESIGN_PERSON_AND_ORGANIZATION_ASSIGNMENT ( #70, #148, ( #157 ) ) ;
#18 = EDGE_LOOP ( 'NONE', ( #176 ) ) ;
#19 = AXIS2_PLACEMENT_3D ( 'NONE', #5, #150, #213 ) ;
#20 = FACE_OUTER_BOUND ( 'NONE', #204, .T. ) ;
#21 = CARTESIAN_POINT ( 'NONE',  ( 1.208052543239724267E-13, -4.237277925049843068E-15, 34.60000000000000853 ) ) ;
#22 = APPROVAL_DATE_TIME ( #181, #220 ) ;
#23 = VERTEX_POINT ( 'NONE', #93 ) ;
#24 = APPROVAL_ROLE ( '' ) ;
#25 = DIRECTION ( 'NONE',  ( -4.275831445896958607E-31, -1.000000000000000000, -1.224646799147353207E-16 ) ) ;
#26 = DIRECTION ( 'NONE',  ( 3.491481338843133355E-15, -1.224646799147353207E-16, 1.000000000000000000 ) ) ;
#27 = CLOSED_SHELL ( 'NONE', ( #170, #126, #202, #120, #212 ) ) ;
#28 = AXIS2_PLACEMENT_3D ( 'NONE', #41, #115, #167 ) ;
#29 = ORIENTED_EDGE ( 'NONE', *, *, #90, .F. ) ;
#30 = CC_DESIGN_APPROVAL ( #136, ( #154 ) ) ;
#31 = EDGE_CURVE ( 'NONE', #34, #34, #68, .T. ) ;
#32 = DIRECTION ( 'NONE',  ( 0.0000000000000000000, 0.0000000000000000000, 1.000000000000000000 ) ) ;
#33 = ORIENTED_EDGE ( 'NONE', *, *, #102, .T. ) ;
#34 = VERTEX_POINT ( 'NONE', #129 ) ;
#35 = AXIS2_PLACEMENT_3D ( 'NONE', #145, #61, #55 ) ;
#36 = DATE_AND_TIME ( #114, #64 ) ;
#37 = DIRECTION ( 'NONE',  ( 0.0000000000000000000, -1.000000000000000000, 0.0000000000000000000 ) ) ;
#38 = APPROVAL_ROLE ( '' ) ;
#39 = VERTEX_POINT ( 'NONE', #182 ) ;
#40 = PERSON_AND_ORGANIZATION ( #51, #16 ) ;
#41 = CARTESIAN_POINT ( 'NONE',  ( 0.0000000000000000000, 0.0000000000000000000, 0.0000000000000000000 ) ) ;
#42 = PRODUCT_RELATED_PRODUCT_CATEGORY ( 'detail', '', ( #45 ) ) ;
#43 = AXIS2_PLACEMENT_3D ( 'NONE', #132, #113, #37 ) ;
#44 = CARTESIAN_POINT ( 'NONE',  ( -2.138938537149990942E-31, -6.358847603239529982E-32, -6.126163452039832837E-17 ) ) ;
#45 = PRODUCT ( '960647', '960647', '', ( #162 ) ) ;
#46 = CC_DESIGN_DATE_AND_TIME_ASSIGNMENT ( #36, #183, ( #140 ) ) ;
#47 = ORIENTED_EDGE ( 'NONE', *, *, #31, .T. ) ;
#48 = EDGE_LOOP ( 'NONE', ( #200 ) ) ;
#49 = CIRCLE ( 'NONE', #53, 1.599999999999998312 ) ;
#51 = PERSON ( 'UNSPECIFIED', 'UNSPECIFIED', 'UNSPECIFIED', ('UNSPECIFIED'), ('UNSPECIFIED'), ('UNSPECIFIED') ) ;
#50 = APPROVAL_PERSON_ORGANIZATION ( #54, #6, #24 ) ;
#52 = ADVANCED_FACE ( 'NONE', ( #149, #78 ), #77, .T. ) ;
#53 = AXIS2_PLACEMENT_3D ( 'NONE', #216, #59, #209 ) ;
#54 = PERSON_AND_ORGANIZATION ( #51, #16 ) ;
#55 = DIRECTION ( 'NONE',  ( 0.0000000000000000000, -1.000000000000000000, 0.0000000000000000000 ) ) ;
#56 = SHAPE_DEFINITION_REPRESENTATION ( #101, #195 ) ;
#57 = DIRECTION ( 'NONE',  ( -4.277877074299981884E-31, -1.000000000000000000, -1.225232690407967060E-16 ) ) ;
#58 = PERSON_AND_ORGANIZATION ( #51, #16 ) ;
#59 = DIRECTION ( 'NONE',  ( -3.491481338843133355E-15, 1.224646799147353207E-16, -1.000000000000000000 ) ) ;
#60 = APPROVAL_STATUS ( 'not_yet_approved' ) ;
#61 = DIRECTION ( 'NONE',  ( 3.491481338843133355E-15, -1.225232690407966814E-16, 1.000000000000000000 ) ) ;
#62 = CARTESIAN_POINT ( 'NONE',  ( -2.025941305359930978E-30, 0.0000000000000000000, -5.802526517387047816E-16 ) ) ;
#63 = CARTESIAN_POINT ( 'NONE',  ( 1.222018468595096801E-13, 1.599999999999994094, 35.00000000000000000 ) ) ;
#64 = LOCAL_TIME ( 13, 44, 10.00000000000000000, #208 ) ;
#65 = AXIS2_PLACEMENT_3D ( 'NONE', #21, #211, #193 ) ;
#66 = DIRECTION ( 'NONE',  ( 3.491481338843133355E-15, -1.224646799147353207E-16, 1.000000000000000000 ) ) ;
#67 = COORDINATED_UNIVERSAL_TIME_OFFSET ( 1, 0, .AHEAD. ) ;
#68 = CIRCLE ( 'NONE', #192, 0.4999999999999997780 ) ;
#69 = ORIENTED_EDGE ( 'NONE', *, *, #102, .F. ) ;
#70 = PERSON_AND_ORGANIZATION ( #51, #16 ) ;
#71 = DIRECTION ( 'NONE',  ( -4.277877074299979256E-31, -1.000000000000000000, -1.225232690407967060E-16 ) ) ;
#72 = CARTESIAN_POINT ( 'NONE',  ( 0.0000000000000000000, 0.0000000000000000000, 0.0000000000000000000 ) ) ;
#73 = FACE_OUTER_BOUND ( 'NONE', #48, .T. ) ;
#74 = FACE_OUTER_BOUND ( 'NONE', #222, .T. ) ;
#75 = LOCAL_TIME ( 13, 44, 10.00000000000000000, #121 ) ;
#76 = DATE_TIME_ROLE ( 'creation_date' ) ;
#77 = CYLINDRICAL_SURFACE ( 'NONE', #94, 0.4999999999999997780 ) ;
#78 = FACE_OUTER_BOUND ( 'NONE', #103, .T. ) ;
#79 = EDGE_CURVE ( 'NONE', #96, #96, #187, .T. ) ;
#80 = ORIENTED_EDGE ( 'NONE', *, *, #79, .T. ) ;
#81 = CC_DESIGN_PERSON_AND_ORGANIZATION_ASSIGNMENT ( #197, #142, ( #140 ) ) ;
#82 = CARTESIAN_POINT ( 'NONE',  ( -8.551700045867646674E-31, 2.999532597218505004E-32, -2.449304239644358043E-16 ) ) ;
#83 =( GEOMETRIC_REPRESENTATION_CONTEXT ( 3 ) GLOBAL_UNCERTAINTY_ASSIGNED_CONTEXT ( ( #173 ) ) GLOBAL_UNIT_ASSIGNED_CONTEXT ( ( #151, #214, #7 ) ) REPRESENTATION_CONTEXT ( 'NONE', 'WORKASPACE' ) );
#84 = ORIENTED_EDGE ( 'NONE', *, *, #217, .T. ) ;
#85 = CC_DESIGN_PERSON_AND_ORGANIZATION_ASSIGNMENT ( #190, #164, ( #45 ) ) ;
#86 = APPROVAL_STATUS ( 'not_yet_approved' ) ;
#87 = EDGE_LOOP ( 'NONE', ( #141 ) ) ;
#88 = DIRECTION ( 'NONE',  ( 0.0000000000000000000, -1.000000000000000000, 0.0000000000000000000 ) ) ;
#89 = FACE_BOUND ( 'NONE', #100, .T. ) ;
#90 = EDGE_CURVE ( 'NONE', #196, #196, #218, .T. ) ;
#91 = CALENDAR_DATE ( 2021, 8, 11 ) ;
#92 = MANIFOLD_SOLID_BREP ( 'Corps-Déplacer/Copier1[2]', #174 ) ;
#93 = CARTESIAN_POINT ( 'NONE',  ( -4.277877074299981008E-31, -0.4999999999999997780, -1.225232690407966567E-16 ) ) ;
#94 = AXIS2_PLACEMENT_3D ( 'NONE', #62, #215, #71 ) ;
#95 = CALENDAR_DATE ( 2021, 8, 11 ) ;
#96 = VERTEX_POINT ( 'NONE', #109 ) ;
#97 = CYLINDRICAL_SURFACE ( 'NONE', #28, 1.999999999999996225 ) ;
#98 = AXIS2_PLACEMENT_3D ( 'NONE', #11, #185, #117 ) ;
#99 = APPLICATION_CONTEXT ( 'configuration controlled 3d designs of mechanical parts and assemblies' ) ;
#100 = EDGE_LOOP ( 'NONE', ( #84 ) ) ;
#101 = PRODUCT_DEFINITION_SHAPE ( 'NONE', 'NONE',  #154 ) ;
#102 = EDGE_CURVE ( 'NONE', #39, #39, #169, .T. ) ;
#103 = EDGE_LOOP ( 'NONE', ( #203 ) ) ;
#104 = APPROVAL_PERSON_ORGANIZATION ( #40, #220, #38 ) ;
#105 = CONICAL_SURFACE ( 'NONE', #98, 1.999999999999996669, 0.5235987755982928205 ) ;
#106 = EDGE_LOOP ( 'NONE', ( #134 ) ) ;
#107 = CALENDAR_DATE ( 2021, 8, 11 ) ;
#108 = EDGE_LOOP ( 'NONE', ( #69 ) ) ;
#109 = CARTESIAN_POINT ( 'NONE',  ( 5.237222008264698455E-15, -0.5000000000000000000, 1.499999999999999556 ) ) ;
#110 = PERSON_AND_ORGANIZATION ( #51, #16 ) ;
#111 = PLANE ( 'NONE',  #19 ) ;
#112 = CC_DESIGN_PERSON_AND_ORGANIZATION_ASSIGNMENT ( #144, #3, ( #157 ) ) ;
#113 = DIRECTION ( 'NONE',  ( 3.491481338843133355E-15, -1.225232690407966814E-16, 1.000000000000000000 ) ) ;
#114 = CALENDAR_DATE ( 2021, 8, 11 ) ;
#115 = DIRECTION ( 'NONE',  ( -3.491481338843133355E-15, 1.224646799147353207E-16, -1.000000000000000000 ) ) ;
#116 = CC_DESIGN_SECURITY_CLASSIFICATION ( #140, ( #157 ) ) ;
#117 = DIRECTION ( 'NONE',  ( 0.0000000000000000000, -1.000000000000000000, 0.0000000000000000000 ) ) ;
#118 = AXIS2_PLACEMENT_3D ( 'NONE', #72, #32, #160 ) ;
#119 = CC_DESIGN_DATE_AND_TIME_ASSIGNMENT ( #139, #76, ( #154 ) ) ;
#120 = ADVANCED_FACE ( 'NONE', ( #131, #8 ), #105, .T. ) ;
#121 = COORDINATED_UNIVERSAL_TIME_OFFSET ( 1, 0, .AHEAD. ) ;
#122 = ORIENTED_EDGE ( 'NONE', *, *, #31, .F. ) ;
#123 = APPLICATION_PROTOCOL_DEFINITION ( 'international standard', 'config_control_design', 1994, #99 ) ;
#124 = FACE_OUTER_BOUND ( 'NONE', #207, .T. ) ;
#125 = COORDINATED_UNIVERSAL_TIME_OFFSET ( 1, 0, .AHEAD. ) ;
#126 = ADVANCED_FACE ( 'NONE', ( #198, #89 ), #138, .T. ) ;
#127 = DIRECTION ( 'NONE',  ( 4.275831445896958607E-31, 1.000000000000000000, 1.224646799147353207E-16 ) ) ;
#128 = DATE_AND_TIME ( #10, #75 ) ;
#129 = CARTESIAN_POINT ( 'NONE',  ( 5.237222008264698455E-15, -0.5000000000000000000, 1.499999999999999556 ) ) ;
#130 = PERSON_AND_ORGANIZATION_ROLE ( 'creator' ) ;
#131 = FACE_BOUND ( 'NONE', #189, .T. ) ;
#132 = CARTESIAN_POINT ( 'NONE',  ( 5.237222008264698455E-15, -1.837849035611950714E-16, 1.499999999999999556 ) ) ;
#133 = CIRCLE ( 'NONE', #155, 0.4999999999999997780 ) ;
#134 = ORIENTED_EDGE ( 'NONE', *, *, #166, .F. ) ;
#135 = DIRECTION ( 'NONE',  ( -4.275831445896958607E-31, -1.000000000000000000, -1.224646799147353207E-16 ) ) ;
#136 = APPROVAL ( #86, 'UNSPECIFIED' ) ;
#137 = DIRECTION ( 'NONE',  ( 3.491481338843133355E-15, -1.225232690407966814E-16, 1.000000000000000000 ) ) ;
#138 = CONICAL_SURFACE ( 'NONE', #2, 1.599999999999998312, 0.7853981633974512766 ) ;
#139 = DATE_AND_TIME ( #91, #188 ) ;
#140 = SECURITY_CLASSIFICATION ( '', '', #206 ) ;
#141 = ORIENTED_EDGE ( 'NONE', *, *, #90, .T. ) ;
#142 = PERSON_AND_ORGANIZATION_ROLE ( 'classification_officer' ) ;
#143 = PLANE ( 'NONE',  #9 ) ;
#144 = PERSON_AND_ORGANIZATION ( #51, #16 ) ;
#145 = CARTESIAN_POINT ( 'NONE',  ( 1.430835661709717515E-14, -5.021096941933349418E-16, 4.098076211353346210 ) ) ;
#146 = APPROVAL_PERSON_ORGANIZATION ( #58, #136, #4 ) ;
#147 = FACE_OUTER_BOUND ( 'NONE', #87, .T. ) ;
#148 = PERSON_AND_ORGANIZATION_ROLE ( 'design_supplier' ) ;
#149 = FACE_OUTER_BOUND ( 'NONE', #18, .T. ) ;
#150 = DIRECTION ( 'NONE',  ( 3.491481338843133355E-15, -1.224646799147353207E-16, 1.000000000000000000 ) ) ;
#151 =( LENGTH_UNIT ( ) NAMED_UNIT ( * ) SI_UNIT ( .MILLI., .METRE. ) );
#152 = AXIS2_PLACEMENT_3D ( 'NONE', #161, #26, #25 ) ;
#153 = CC_DESIGN_APPROVAL ( #6, ( #140 ) ) ;
#154 = PRODUCT_DEFINITION ( 'UNKNOWN', '', #157, #156 ) ;
#155 = AXIS2_PLACEMENT_3D ( 'NONE', #44, #191, #57 ) ;
#156 = DESIGN_CONTEXT ( 'detailed design', #201, 'design' ) ;
#157 = PRODUCT_DEFINITION_FORMATION_WITH_SPECIFIED_SOURCE ( 'ANY', '', #45, .NOT_KNOWN. ) ;
#158 = ADVANCED_FACE ( 'NONE', ( #74 ), #13, .T. ) ;
#159 = PLANE ( 'NONE',  #14 ) ;
#160 = DIRECTION ( 'NONE',  ( 1.000000000000000000, 0.0000000000000000000, 0.0000000000000000000 ) ) ;
#161 = CARTESIAN_POINT ( 'NONE',  ( 5.237222008264699244E-15, -1.626303258728260102E-16, 1.499999999999999778 ) ) ;
#162 = MECHANICAL_CONTEXT ( 'NONE', #99, 'mechanical' ) ;
#163 = CARTESIAN_POINT ( 'NONE',  ( 1.222018468595096801E-13, -4.286263797015736496E-15, 35.00000000000000000 ) ) ;
#164 = PERSON_AND_ORGANIZATION_ROLE ( 'design_owner' ) ;
#165 = VERTEX_POINT ( 'NONE', #63 ) ;
#166 = EDGE_CURVE ( 'NONE', #23, #23, #133, .T. ) ;
#167 = DIRECTION ( 'NONE',  ( 4.275831445896958607E-31, 1.000000000000000000, 1.224646799147352961E-16 ) ) ;
#168 = DIRECTION ( 'NONE',  ( -3.491481338843133355E-15, 1.224646799147353207E-16, -1.000000000000000000 ) ) ;
#169 = CIRCLE ( 'NONE', #65, 1.999999999999998224 ) ;
#170 = ADVANCED_FACE ( 'NONE', ( #124, #147 ), #97, .T. ) ;
#171 = EDGE_LOOP ( 'NONE', ( #29 ) ) ;
#172 = MANIFOLD_SOLID_BREP ( 'Corps-Déplacer/Copier1[1]', #27 ) ;
#173 = UNCERTAINTY_MEASURE_WITH_UNIT (LENGTH_MEASURE( 1.000000000000000082E-05 ), #151, 'distance_accuracy_value', 'NONE');
#174 = CLOSED_SHELL ( 'NONE', ( #158, #52, #12 ) ) ;
#175 = APPLICATION_PROTOCOL_DEFINITION ( 'international standard', 'config_control_design', 1994, #201 ) ;
#176 = ORIENTED_EDGE ( 'NONE', *, *, #166, .T. ) ;
#177 = DATE_AND_TIME ( #95, #221 ) ;
#178 = CARTESIAN_POINT ( 'NONE',  ( 1.430835661709717515E-14, -1.999999999999997113, 4.098076211353346210 ) ) ;
#179 = APPROVAL_STATUS ( 'not_yet_approved' ) ;
#180 = DIRECTION ( 'NONE',  ( 0.0000000000000000000, 1.000000000000000000, 0.0000000000000000000 ) ) ;
#181 = DATE_AND_TIME ( #107, #205 ) ;
#182 = CARTESIAN_POINT ( 'NONE',  ( 1.208052543239724267E-13, 1.999999999999994005, 34.60000000000000853 ) ) ;
#183 = DATE_TIME_ROLE ( 'classification_date' ) ;
#184 = CARTESIAN_POINT ( 'NONE',  ( 1.222018468595096801E-13, 1.199807826129478286E-32, 35.00000000000000000 ) ) ;
#185 = DIRECTION ( 'NONE',  ( 3.491481338843133355E-15, -1.225232690407966814E-16, 1.000000000000000000 ) ) ;
#186 = CC_DESIGN_PERSON_AND_ORGANIZATION_ASSIGNMENT ( #110, #130, ( #154 ) ) ;
#187 = CIRCLE ( 'NONE', #43, 0.4999999999999997780 ) ;
#188 = LOCAL_TIME ( 13, 44, 10.00000000000000000, #67 ) ;
#189 = EDGE_LOOP ( 'NONE', ( #47 ) ) ;
#190 = PERSON_AND_ORGANIZATION ( #51, #16 ) ;
#191 = DIRECTION ( 'NONE',  ( 3.491481338843133355E-15, -1.225232690407966814E-16, 1.000000000000000000 ) ) ;
#192 = AXIS2_PLACEMENT_3D ( 'NONE', #223, #137, #88 ) ;
#193 = DIRECTION ( 'NONE',  ( 0.0000000000000000000, 1.000000000000000000, 0.0000000000000000000 ) ) ;
#194 = APPROVAL_DATE_TIME ( #128, #136 ) ;
#195 = ADVANCED_BREP_SHAPE_REPRESENTATION ( '960647', ( #172, #92, #118 ), #83 ) ;
#196 = VERTEX_POINT ( 'NONE', #178 ) ;
#197 = PERSON_AND_ORGANIZATION ( #51, #16 ) ;
#198 = FACE_OUTER_BOUND ( 'NONE', #108, .T. ) ;
#199 = DIRECTION ( 'NONE',  ( -3.491481338843133355E-15, 1.224646799147353207E-16, -1.000000000000000000 ) ) ;
#200 = ORIENTED_EDGE ( 'NONE', *, *, #217, .F. ) ;
#201 = APPLICATION_CONTEXT ( 'configuration controlled 3d designs of mechanical parts and assemblies' ) ;
#202 = ADVANCED_FACE ( 'NONE', ( #73 ), #143, .F. ) ;
#203 = ORIENTED_EDGE ( 'NONE', *, *, #79, .F. ) ;
#204 = EDGE_LOOP ( 'NONE', ( #122 ) ) ;
#205 = LOCAL_TIME ( 13, 44, 10.00000000000000000, #1 ) ;
#206 = SECURITY_CLASSIFICATION_LEVEL ( 'unclassified' ) ;
#207 = EDGE_LOOP ( 'NONE', ( #33 ) ) ;
#208 = COORDINATED_UNIVERSAL_TIME_OFFSET ( 1, 0, .AHEAD. ) ;
#209 = DIRECTION ( 'NONE',  ( 0.0000000000000000000, 1.000000000000000000, 0.0000000000000000000 ) ) ;
#210 = APPROVAL_DATE_TIME ( #177, #6 ) ;
#211 = DIRECTION ( 'NONE',  ( -3.491481338843133355E-15, 1.224646799147353207E-16, -1.000000000000000000 ) ) ;
#212 = ADVANCED_FACE ( 'NONE', ( #20 ), #111, .F. ) ;
#213 = DIRECTION ( 'NONE',  ( -4.275831445896958607E-31, -1.000000000000000000, -1.224646799147353207E-16 ) ) ;
#214 =( NAMED_UNIT ( * ) PLANE_ANGLE_UNIT ( ) SI_UNIT ( $, .RADIAN. ) );
#215 = DIRECTION ( 'NONE',  ( 3.491481338843133355E-15, -1.225232690407966814E-16, 1.000000000000000000 ) ) ;
#216 = CARTESIAN_POINT ( 'NONE',  ( 1.222018468595096801E-13, -4.286263797015736496E-15, 35.00000000000000000 ) ) ;
#217 = EDGE_CURVE ( 'NONE', #165, #165, #49, .T. ) ;
#218 = CIRCLE ( 'NONE', #35, 1.999999999999996669 ) ;
#219 = CC_DESIGN_APPROVAL ( #220, ( #157 ) ) ;
#220 = APPROVAL ( #60, 'UNSPECIFIED' ) ;
#221 = LOCAL_TIME ( 13, 44, 10.00000000000000000, #125 ) ;
#222 = EDGE_LOOP ( 'NONE', ( #80 ) ) ;
#223 = CARTESIAN_POINT ( 'NONE',  ( 5.237222008264698455E-15, -1.837849035611950714E-16, 1.499999999999999556 ) ) ;
ENDSEC;
END-ISO-10303-21;
