ISO-10303-21;
HEADER;
FILE_DESCRIPTION (( 'STEP AP203' ),
    '1' );
FILE_NAME ('960646.step',
    '2021-11-08T12:44:10',
    ( '' ),
    ( '' ),
    'SwSTEP 2.0',
    'SolidWorks 2019',
    '' );
FILE_SCHEMA (( 'CONFIG_CONTROL_DESIGN' ));
ENDSEC;

DATA;
#1 = ORIENTED_EDGE ( 'NONE', *, *, #8, .F. ) ;
#2 = ADVANCED_FACE ( 'NONE', ( #4 ), #81, .T. ) ;
#3 = CALENDAR_DATE ( 2021, 8, 11 ) ;
#4 = FACE_OUTER_BOUND ( 'NONE', #162, .T. ) ;
#5 = CIRCLE ( 'NONE', #24, 1.599999999999998312 ) ;
#6 = CALENDAR_DATE ( 2021, 8, 11 ) ;
#7 = ADVANCED_BREP_SHAPE_REPRESENTATION ( '960646', ( #83, #85, #109 ), #97 ) ;
#8 = EDGE_CURVE ( 'NONE', #183, #183, #180, .T. ) ;
#9 = APPROVAL_STATUS ( 'not_yet_approved' ) ;
#10 = ORIENTED_EDGE ( 'NONE', *, *, #61, .T. ) ;
#11 = CIRCLE ( 'NONE', #171, 0.4500000000000000666 ) ;
#12 = CYLINDRICAL_SURFACE ( 'NONE', #55, 1.999999999999996225 ) ;
#13 = CARTESIAN_POINT ( 'NONE',  ( 5.237222008264699244E-15, -1.626303258728260102E-16, 1.499999999999999778 ) ) ;
#14 = CARTESIAN_POINT ( 'NONE',  ( 5.237222008264698455E-15, -1.837849035611950714E-16, 1.499999999999999556 ) ) ;
#15 = PLANE ( 'NONE',  #115 ) ;
#16 = VERTEX_POINT ( 'NONE', #154 ) ;
#17 = VERTEX_POINT ( 'NONE', #187 ) ;
#18 = EDGE_CURVE ( 'NONE', #16, #16, #192, .T. ) ;
#19 = AXIS2_PLACEMENT_3D ( 'NONE', #78, #119, #218 ) ;
#20 = PERSON_AND_ORGANIZATION_ROLE ( 'design_owner' ) ;
#21 = ADVANCED_FACE ( 'NONE', ( #44, #30 ), #118, .T. ) ;
#22 = EDGE_LOOP ( 'NONE', ( #164 ) ) ;
#23 = EDGE_LOOP ( 'NONE', ( #212 ) ) ;
#24 = AXIS2_PLACEMENT_3D ( 'NONE', #198, #63, #167 ) ;
#25 = PRODUCT_DEFINITION_FORMATION_WITH_SPECIFIED_SOURCE ( 'ANY', '', #126, .NOT_KNOWN. ) ;
#26 = ORIENTED_EDGE ( 'NONE', *, *, #57, .F. ) ;
#27 = CARTESIAN_POINT ( 'NONE',  ( 5.237222008264699244E-15, -1.626303258728260102E-16, 1.499999999999999778 ) ) ;
#28 = APPROVAL_ROLE ( '' ) ;
#29 = FACE_OUTER_BOUND ( 'NONE', #41, .T. ) ;
#30 = FACE_OUTER_BOUND ( 'NONE', #62, .T. ) ;
#31 = LOCAL_TIME ( 13, 44, 10.00000000000000000, #40 ) ;
#32 = FACE_OUTER_BOUND ( 'NONE', #133, .T. ) ;
#33 = COORDINATED_UNIVERSAL_TIME_OFFSET ( 1, 0, .AHEAD. ) ;
#34 = PERSON_AND_ORGANIZATION ( #48, #156 ) ;
#35 = AXIS2_PLACEMENT_3D ( 'NONE', #14, #136, #168 ) ;
#36 = ADVANCED_FACE ( 'NONE', ( #179 ), #148, .F. ) ;
#37 = CLOSED_SHELL ( 'NONE', ( #49, #169, #74, #132, #36 ) ) ;
#38 = ORIENTED_EDGE ( 'NONE', *, *, #120, .F. ) ;
#39 = PERSON_AND_ORGANIZATION ( #48, #156 ) ;
#40 = COORDINATED_UNIVERSAL_TIME_OFFSET ( 1, 0, .AHEAD. ) ;
#41 = EDGE_LOOP ( 'NONE', ( #130 ) ) ;
#42 = FACE_OUTER_BOUND ( 'NONE', #23, .T. ) ;
#43 = CC_DESIGN_PERSON_AND_ORGANIZATION_ASSIGNMENT ( #51, #107, ( #25 ) ) ;
#44 = FACE_OUTER_BOUND ( 'NONE', #160, .T. ) ;
#45 = CC_DESIGN_APPROVAL ( #54, ( #71 ) ) ;
#46 = FACE_OUTER_BOUND ( 'NONE', #191, .T. ) ;
#47 = FACE_OUTER_BOUND ( 'NONE', #22, .T. ) ;
#48 = PERSON ( 'UNSPECIFIED', 'UNSPECIFIED', 'UNSPECIFIED', ('UNSPECIFIED'), ('UNSPECIFIED'), ('UNSPECIFIED') ) ;
#49 = ADVANCED_FACE ( 'NONE', ( #32, #29 ), #12, .T. ) ;
#50 = CARTESIAN_POINT ( 'NONE',  ( 1.461072777072492558E-14, -5.127205205477394382E-16, 4.184678751731790491 ) ) ;
#51 = PERSON_AND_ORGANIZATION ( #48, #156 ) ;
#52 = SECURITY_CLASSIFICATION_LEVEL ( 'unclassified' ) ;
#53 =( LENGTH_UNIT ( ) NAMED_UNIT ( * ) SI_UNIT ( .MILLI., .METRE. ) );
#54 = APPROVAL ( #9, 'UNSPECIFIED' ) ;
#55 = AXIS2_PLACEMENT_3D ( 'NONE', #193, #217, #64 ) ;
#56 = CC_DESIGN_APPROVAL ( #135, ( #25 ) ) ;
#57 = EDGE_CURVE ( 'NONE', #17, #17, #11, .T. ) ;
#58 = VERTEX_POINT ( 'NONE', #111 ) ;
#59 = EDGE_LOOP ( 'NONE', ( #38 ) ) ;
#60 = PERSON_AND_ORGANIZATION_ROLE ( 'creator' ) ;
#61 = EDGE_CURVE ( 'NONE', #113, #113, #5, .T. ) ;
#62 = EDGE_LOOP ( 'NONE', ( #26 ) ) ;
#63 = DIRECTION ( 'NONE',  ( -3.491481338843133355E-15, 1.224646799147353207E-16, -1.000000000000000000 ) ) ;
#64 = DIRECTION ( 'NONE',  ( 4.275831445896958607E-31, 1.000000000000000000, 1.224646799147352961E-16 ) ) ;
#65 = DIRECTION ( 'NONE',  ( 0.0000000000000000000, -1.000000000000000000, 0.0000000000000000000 ) ) ;
#66 = CARTESIAN_POINT ( 'NONE',  ( 1.222018468595096801E-13, 1.199807826129478286E-32, 35.00000000000000000 ) ) ;
#67 = CARTESIAN_POINT ( 'NONE',  ( 5.237222008264698455E-15, -1.837849035611950714E-16, 1.499999999999999556 ) ) ;
#68 = AXIS2_PLACEMENT_3D ( 'NONE', #140, #199, #122 ) ;
#69 =( NAMED_UNIT ( * ) PLANE_ANGLE_UNIT ( ) SI_UNIT ( $, .RADIAN. ) );
#70 = PERSON_AND_ORGANIZATION ( #48, #156 ) ;
#71 = SECURITY_CLASSIFICATION ( '', '', #52 ) ;
#72 = AXIS2_PLACEMENT_3D ( 'NONE', #194, #181, #184 ) ;
#73 = APPROVAL_STATUS ( 'not_yet_approved' ) ;
#74 = ADVANCED_FACE ( 'NONE', ( #47 ), #214, .F. ) ;
#75 = EDGE_LOOP ( 'NONE', ( #10 ) ) ;
#76 = AXIS2_PLACEMENT_3D ( 'NONE', #13, #153, #96 ) ;
#77 = DIRECTION ( 'NONE',  ( 3.491481338843133355E-15, -1.224646799147353207E-16, 1.000000000000000000 ) ) ;
#78 = CARTESIAN_POINT ( 'NONE',  ( -2.025941305359930978E-30, 0.0000000000000000000, -5.802526517387047816E-16 ) ) ;
#79 = APPROVAL ( #90, 'UNSPECIFIED' ) ;
#80 = DIRECTION ( 'NONE',  ( 3.491481338843133355E-15, -1.225232690407966814E-16, 1.000000000000000000 ) ) ;
#81 = PLANE ( 'NONE',  #76 ) ;
#82 = FACE_BOUND ( 'NONE', #178, .T. ) ;
#83 = MANIFOLD_SOLID_BREP ( 'Corps-Déplacer/Copier1[1]', #37 ) ;
#84 = APPLICATION_PROTOCOL_DEFINITION ( 'international standard', 'config_control_design', 1994, #222 ) ;
#85 = MANIFOLD_SOLID_BREP ( 'Corps-Déplacer/Copier1[2]', #186 ) ;
#86 = AXIS2_PLACEMENT_3D ( 'NONE', #27, #149, #170 ) ;
#87 = APPROVAL_ROLE ( '' ) ;
#88 = APPLICATION_CONTEXT ( 'configuration controlled 3d designs of mechanical parts and assemblies' ) ;
#89 = PRODUCT_DEFINITION_SHAPE ( 'NONE', 'NONE',  #202 ) ;
#90 = APPROVAL_STATUS ( 'not_yet_approved' ) ;
#91 = ORIENTED_EDGE ( 'NONE', *, *, #57, .T. ) ;
#92 = CC_DESIGN_DATE_AND_TIME_ASSIGNMENT ( #146, #137, ( #71 ) ) ;
#93 = CALENDAR_DATE ( 2021, 8, 11 ) ;
#94 = ORIENTED_EDGE ( 'NONE', *, *, #18, .F. ) ;
#95 = CC_DESIGN_SECURITY_CLASSIFICATION ( #71, ( #25 ) ) ;
#96 = DIRECTION ( 'NONE',  ( -4.275831445896958607E-31, -1.000000000000000000, -1.224646799147353207E-16 ) ) ;
#97 =( GEOMETRIC_REPRESENTATION_CONTEXT ( 3 ) GLOBAL_UNCERTAINTY_ASSIGNED_CONTEXT ( ( #206 ) ) GLOBAL_UNIT_ASSIGNED_CONTEXT ( ( #53, #69, #128 ) ) REPRESENTATION_CONTEXT ( 'NONE', 'WORKASPACE' ) );
#98 = DIRECTION ( 'NONE',  ( 0.0000000000000000000, -1.000000000000000000, 0.0000000000000000000 ) ) ;
#99 = ADVANCED_FACE ( 'NONE', ( #46 ), #15, .F. ) ;
#100 = PERSON_AND_ORGANIZATION ( #48, #156 ) ;
#101 = CARTESIAN_POINT ( 'NONE',  ( -8.551700045867646674E-31, 2.999532597218505004E-32, -2.449304239644358043E-16 ) ) ;
#102 = PRODUCT_RELATED_PRODUCT_CATEGORY ( 'detail', '', ( #126 ) ) ;
#103 = DIRECTION ( 'NONE',  ( -4.277877074299981884E-31, -1.000000000000000000, -1.225232690407966567E-16 ) ) ;
#104 = AXIS2_PLACEMENT_3D ( 'NONE', #165, #172, #103 ) ;
#105 = DIRECTION ( 'NONE',  ( 3.491481338843133355E-15, -1.225232690407966814E-16, 1.000000000000000000 ) ) ;
#106 = CALENDAR_DATE ( 2021, 8, 11 ) ;
#107 = PERSON_AND_ORGANIZATION_ROLE ( 'creator' ) ;
#108 = APPROVAL_PERSON_ORGANIZATION ( #100, #54, #28 ) ;
#109 = AXIS2_PLACEMENT_3D ( 'NONE', #190, #143, #131 ) ;
#110 = DESIGN_CONTEXT ( 'detailed design', #88, 'design' ) ;
#111 = CARTESIAN_POINT ( 'NONE',  ( 5.237222008264698455E-15, -0.4500000000000001776, 1.499999999999999556 ) ) ;
#112 = CONICAL_SURFACE ( 'NONE', #151, 1.999999999999996669, 0.5235987755982929315 ) ;
#113 = VERTEX_POINT ( 'NONE', #155 ) ;
#114 = APPLICATION_PROTOCOL_DEFINITION ( 'international standard', 'config_control_design', 1994, #88 ) ;
#115 = AXIS2_PLACEMENT_3D ( 'NONE', #101, #77, #121 ) ;
#116 = LOCAL_TIME ( 13, 44, 10.00000000000000000, #210 ) ;
#117 = ORIENTED_EDGE ( 'NONE', *, *, #120, .T. ) ;
#118 = CYLINDRICAL_SURFACE ( 'NONE', #19, 0.4499999999999999556 ) ;
#119 = DIRECTION ( 'NONE',  ( 3.491481338843133355E-15, -1.225232690407966814E-16, 1.000000000000000000 ) ) ;
#120 = EDGE_CURVE ( 'NONE', #58, #58, #139, .T. ) ;
#121 = DIRECTION ( 'NONE',  ( -4.275831445896958607E-31, -1.000000000000000000, -1.224646799147353207E-16 ) ) ;
#122 = DIRECTION ( 'NONE',  ( 0.0000000000000000000, 1.000000000000000000, 0.0000000000000000000 ) ) ;
#123 = CARTESIAN_POINT ( 'NONE',  ( 1.208052543239724267E-13, 1.999999999999994005, 34.60000000000000853 ) ) ;
#124 = EDGE_CURVE ( 'NONE', #158, #158, #197, .T. ) ;
#125 = PERSON_AND_ORGANIZATION ( #48, #156 ) ;
#126 = PRODUCT ( '960646', '960646', '', ( #201 ) ) ;
#127 = LOCAL_TIME ( 13, 44, 10.00000000000000000, #161 ) ;
#128 =( NAMED_UNIT ( * ) SI_UNIT ( $, .STERADIAN. ) SOLID_ANGLE_UNIT ( ) );
#129 = CC_DESIGN_DATE_AND_TIME_ASSIGNMENT ( #220, #173, ( #202 ) ) ;
#130 = ORIENTED_EDGE ( 'NONE', *, *, #124, .T. ) ;
#131 = DIRECTION ( 'NONE',  ( 1.000000000000000000, 0.0000000000000000000, 0.0000000000000000000 ) ) ;
#132 = ADVANCED_FACE ( 'NONE', ( #82, #42 ), #112, .T. ) ;
#133 = EDGE_LOOP ( 'NONE', ( #145 ) ) ;
#134 = CALENDAR_DATE ( 2021, 8, 11 ) ;
#135 = APPROVAL ( #73, 'UNSPECIFIED' ) ;
#136 = DIRECTION ( 'NONE',  ( 3.491481338843133355E-15, -1.225232690407966814E-16, 1.000000000000000000 ) ) ;
#137 = DATE_TIME_ROLE ( 'classification_date' ) ;
#138 = DIRECTION ( 'NONE',  ( -3.491481338843133355E-15, 1.224646799147353207E-16, -1.000000000000000000 ) ) ;
#139 = CIRCLE ( 'NONE', #35, 0.4500000000000000666 ) ;
#140 = CARTESIAN_POINT ( 'NONE',  ( 1.222018468595096801E-13, -4.286263797015736496E-15, 35.00000000000000000 ) ) ;
#141 = DIRECTION ( 'NONE',  ( 4.275831445896958607E-31, 1.000000000000000000, 1.224646799147353207E-16 ) ) ;
#142 = APPROVAL_DATE_TIME ( #203, #135 ) ;
#143 = DIRECTION ( 'NONE',  ( 0.0000000000000000000, 0.0000000000000000000, 1.000000000000000000 ) ) ;
#144 = PERSON_AND_ORGANIZATION_ROLE ( 'design_supplier' ) ;
#145 = ORIENTED_EDGE ( 'NONE', *, *, #8, .T. ) ;
#146 = DATE_AND_TIME ( #106, #195 ) ;
#147 = EDGE_LOOP ( 'NONE', ( #1 ) ) ;
#148 = PLANE ( 'NONE',  #86 ) ;
#149 = DIRECTION ( 'NONE',  ( 3.491481338843133355E-15, -1.224646799147353207E-16, 1.000000000000000000 ) ) ;
#150 = FACE_OUTER_BOUND ( 'NONE', #147, .T. ) ;
#151 = AXIS2_PLACEMENT_3D ( 'NONE', #50, #80, #65 ) ;
#152 = APPROVAL_PERSON_ORGANIZATION ( #157, #135, #221 ) ;
#153 = DIRECTION ( 'NONE',  ( 3.491481338843133355E-15, -1.224646799147353207E-16, 1.000000000000000000 ) ) ;
#154 = CARTESIAN_POINT ( 'NONE',  ( -3.850089366869981681E-31, -0.4499999999999998446, -1.102709421367169368E-16 ) ) ;
#155 = CARTESIAN_POINT ( 'NONE',  ( 1.222018468595096801E-13, 1.599999999999994094, 35.00000000000000000 ) ) ;
#156 = ORGANIZATION ( 'UNSPECIFIED', 'UNSPECIFIED', '' ) ;
#157 = PERSON_AND_ORGANIZATION ( #48, #156 ) ;
#158 = VERTEX_POINT ( 'NONE', #174 ) ;
#159 = APPROVAL_DATE_TIME ( #188, #79 ) ;
#160 = EDGE_LOOP ( 'NONE', ( #176 ) ) ;
#161 = COORDINATED_UNIVERSAL_TIME_OFFSET ( 1, 0, .AHEAD. ) ;
#162 = EDGE_LOOP ( 'NONE', ( #91 ) ) ;
#163 = DATE_AND_TIME ( #134, #31 ) ;
#164 = ORIENTED_EDGE ( 'NONE', *, *, #61, .F. ) ;
#165 = CARTESIAN_POINT ( 'NONE',  ( -1.925044683434990403E-31, -6.433907360521747318E-32, -5.513547106835845609E-17 ) ) ;
#166 = CC_DESIGN_PERSON_AND_ORGANIZATION_ASSIGNMENT ( #70, #60, ( #202 ) ) ;
#167 = DIRECTION ( 'NONE',  ( 0.0000000000000000000, 1.000000000000000000, 0.0000000000000000000 ) ) ;
#168 = DIRECTION ( 'NONE',  ( 0.0000000000000000000, -1.000000000000000000, 0.0000000000000000000 ) ) ;
#169 = ADVANCED_FACE ( 'NONE', ( #150, #215 ), #177, .T. ) ;
#170 = DIRECTION ( 'NONE',  ( -4.275831445896958607E-31, -1.000000000000000000, -1.224646799147353207E-16 ) ) ;
#171 = AXIS2_PLACEMENT_3D ( 'NONE', #67, #213, #98 ) ;
#172 = DIRECTION ( 'NONE',  ( 3.491481338843133355E-15, -1.225232690407966814E-16, 1.000000000000000000 ) ) ;
#173 = DATE_TIME_ROLE ( 'creation_date' ) ;
#174 = CARTESIAN_POINT ( 'NONE',  ( 1.461072777072492558E-14, -1.999999999999997113, 4.184678751731790491 ) ) ;
#175 = AXIS2_PLACEMENT_3D ( 'NONE', #182, #105, #200 ) ;
#176 = ORIENTED_EDGE ( 'NONE', *, *, #18, .T. ) ;
#177 = CONICAL_SURFACE ( 'NONE', #68, 1.599999999999998312, 0.7853981633974512766 ) ;
#178 = EDGE_LOOP ( 'NONE', ( #117 ) ) ;
#179 = FACE_OUTER_BOUND ( 'NONE', #59, .T. ) ;
#180 = CIRCLE ( 'NONE', #72, 1.999999999999998224 ) ;
#181 = DIRECTION ( 'NONE',  ( -3.491481338843133355E-15, 1.224646799147353207E-16, -1.000000000000000000 ) ) ;
#182 = CARTESIAN_POINT ( 'NONE',  ( 1.461072777072492558E-14, -5.127205205477394382E-16, 4.184678751731790491 ) ) ;
#183 = VERTEX_POINT ( 'NONE', #123 ) ;
#184 = DIRECTION ( 'NONE',  ( 0.0000000000000000000, 1.000000000000000000, 0.0000000000000000000 ) ) ;
#185 = PERSON_AND_ORGANIZATION_ROLE ( 'classification_officer' ) ;
#186 = CLOSED_SHELL ( 'NONE', ( #2, #21, #99 ) ) ;
#187 = CARTESIAN_POINT ( 'NONE',  ( 5.237222008264698455E-15, -0.4500000000000001776, 1.499999999999999556 ) ) ;
#188 = DATE_AND_TIME ( #93, #205 ) ;
#189 = CC_DESIGN_PERSON_AND_ORGANIZATION_ASSIGNMENT ( #204, #185, ( #71 ) ) ;
#190 = CARTESIAN_POINT ( 'NONE',  ( 0.0000000000000000000, 0.0000000000000000000, 0.0000000000000000000 ) ) ;
#191 = EDGE_LOOP ( 'NONE', ( #94 ) ) ;
#192 = CIRCLE ( 'NONE', #104, 0.4499999999999998446 ) ;
#193 = CARTESIAN_POINT ( 'NONE',  ( 0.0000000000000000000, 0.0000000000000000000, 0.0000000000000000000 ) ) ;
#194 = CARTESIAN_POINT ( 'NONE',  ( 1.208052543239724267E-13, -4.237277925049843068E-15, 34.60000000000000853 ) ) ;
#195 = LOCAL_TIME ( 13, 44, 10.00000000000000000, #33 ) ;
#196 = APPROVAL_DATE_TIME ( #163, #54 ) ;
#197 = CIRCLE ( 'NONE', #175, 1.999999999999996669 ) ;
#198 = CARTESIAN_POINT ( 'NONE',  ( 1.222018468595096801E-13, -4.286263797015736496E-15, 35.00000000000000000 ) ) ;
#199 = DIRECTION ( 'NONE',  ( -3.491481338843133355E-15, 1.224646799147353207E-16, -1.000000000000000000 ) ) ;
#200 = DIRECTION ( 'NONE',  ( 0.0000000000000000000, -1.000000000000000000, 0.0000000000000000000 ) ) ;
#201 = MECHANICAL_CONTEXT ( 'NONE', #222, 'mechanical' ) ;
#202 = PRODUCT_DEFINITION ( 'UNKNOWN', '', #25, #110 ) ;
#203 = DATE_AND_TIME ( #6, #116 ) ;
#204 = PERSON_AND_ORGANIZATION ( #48, #156 ) ;
#205 = LOCAL_TIME ( 13, 44, 10.00000000000000000, #207 ) ;
#206 = UNCERTAINTY_MEASURE_WITH_UNIT (LENGTH_MEASURE( 1.000000000000000082E-05 ), #53, 'distance_accuracy_value', 'NONE');
#207 = COORDINATED_UNIVERSAL_TIME_OFFSET ( 1, 0, .AHEAD. ) ;
#208 = CC_DESIGN_PERSON_AND_ORGANIZATION_ASSIGNMENT ( #125, #144, ( #25 ) ) ;
#209 = APPROVAL_PERSON_ORGANIZATION ( #34, #79, #87 ) ;
#210 = COORDINATED_UNIVERSAL_TIME_OFFSET ( 1, 0, .AHEAD. ) ;
#211 = SHAPE_DEFINITION_REPRESENTATION ( #89, #7 ) ;
#212 = ORIENTED_EDGE ( 'NONE', *, *, #124, .F. ) ;
#213 = DIRECTION ( 'NONE',  ( 3.491481338843133355E-15, -1.225232690407966814E-16, 1.000000000000000000 ) ) ;
#214 = PLANE ( 'NONE',  #223 ) ;
#215 = FACE_BOUND ( 'NONE', #75, .T. ) ;
#216 = CC_DESIGN_APPROVAL ( #79, ( #202 ) ) ;
#217 = DIRECTION ( 'NONE',  ( -3.491481338843133355E-15, 1.224646799147353207E-16, -1.000000000000000000 ) ) ;
#218 = DIRECTION ( 'NONE',  ( -4.277877074299981884E-31, -1.000000000000000000, -1.225232690407965828E-16 ) ) ;
#219 = CC_DESIGN_PERSON_AND_ORGANIZATION_ASSIGNMENT ( #39, #20, ( #126 ) ) ;
#220 = DATE_AND_TIME ( #3, #127 ) ;
#221 = APPROVAL_ROLE ( '' ) ;
#222 = APPLICATION_CONTEXT ( 'configuration controlled 3d designs of mechanical parts and assemblies' ) ;
#223 = AXIS2_PLACEMENT_3D ( 'NONE', #66, #138, #141 ) ;
ENDSEC;
END-ISO-10303-21;
