ISO-10303-21;
HEADER;
FILE_DESCRIPTION (( 'STEP AP203' ),
    '1' );
FILE_NAME ('960611.step',
    '2021-11-25T13:47:02',
    ( '' ),
    ( '' ),
    'SwSTEP 2.0',
    'SolidWorks 2019',
    '' );
FILE_SCHEMA (( 'CONFIG_CONTROL_DESIGN' ));
ENDSEC;

DATA;
#1 = FACE_OUTER_BOUND ( 'NONE', #139, .T. ) ;
#2 = FACE_OUTER_BOUND ( 'NONE', #186, .T. ) ;
#3 = AXIS2_PLACEMENT_3D ( 'NONE', #86, #133, #158 ) ;
#4 = DIRECTION ( 'NONE',  ( 0.0000000000000000000, 1.000000000000000000, 0.0000000000000000000 ) ) ;
#5 = DIRECTION ( 'NONE',  ( 0.0000000000000000000, 1.000000000000000000, 0.0000000000000000000 ) ) ;
#6 = APPROVAL_ROLE ( '' ) ;
#7 = DATE_AND_TIME ( #149, #87 ) ;
#8 = PRODUCT_DEFINITION_SHAPE ( 'NONE', 'NONE',  #150 ) ;
#9 =( NAMED_UNIT ( * ) SI_UNIT ( $, .STERADIAN. ) SOLID_ANGLE_UNIT ( ) );
#10 = ADVANCED_FACE ( 'NONE', ( #129 ), #187, .F. ) ;
#11 = PERSON_AND_ORGANIZATION ( #35, #42 ) ;
#12 = AXIS2_PLACEMENT_3D ( 'NONE', #20, #188, #144 ) ;
#13 = DIRECTION ( 'NONE',  ( 0.0000000000000000000, 0.0000000000000000000, 1.000000000000000000 ) ) ;
#14 = ORIENTED_EDGE ( 'NONE', *, *, #174, .F. ) ;
#15 = APPROVAL ( #137, 'UNSPECIFIED' ) ;
#16 = ORIENTED_EDGE ( 'NONE', *, *, #78, .F. ) ;
#17 = FACE_OUTER_BOUND ( 'NONE', #64, .T. ) ;
#18 = CIRCLE ( 'NONE', #12, 0.1000000000000001582 ) ;
#19 = DIRECTION ( 'NONE',  ( -3.491481338843133355E-15, 1.224646799147353207E-16, -1.000000000000000000 ) ) ;
#20 = CARTESIAN_POINT ( 'NONE',  ( -1.909911662918013315E-32, 6.699068325599977581E-34, -5.470204413439147694E-18 ) ) ;
#21 = LOCAL_TIME ( 14, 47, 2.000000000000000000, #26 ) ;
#22 = VERTEX_POINT ( 'NONE', #89 ) ;
#23 = PERSON_AND_ORGANIZATION_ROLE ( 'creator' ) ;
#24 = APPROVAL_DATE_TIME ( #163, #156 ) ;
#25 = CALENDAR_DATE ( 2021, 25, 11 ) ;
#26 = COORDINATED_UNIVERSAL_TIME_OFFSET ( 1, 0, .AHEAD. ) ;
#27 = APPROVAL ( #74, 'UNSPECIFIED' ) ;
#28 = ORIENTED_EDGE ( 'NONE', *, *, #115, .F. ) ;
#29 = CARTESIAN_POINT ( 'NONE',  ( 8.466392301576975826E-15, -7.010801460773509064E-16, 2.424871130596455870 ) ) ;
#30 = CIRCLE ( 'NONE', #172, 1.199999999999998623 ) ;
#31 = EDGE_LOOP ( 'NONE', ( #28 ) ) ;
#32 = CARTESIAN_POINT ( 'NONE',  ( 1.326762908760390423E-13, -4.653657836759941941E-15, 38.00000000000000000 ) ) ;
#33 = DIRECTION ( 'NONE',  ( -3.491481338843133355E-15, 1.224646799147353207E-16, -1.000000000000000000 ) ) ;
#34 = CC_DESIGN_SECURITY_CLASSIFICATION ( #180, ( #46 ) ) ;
#35 = PERSON ( 'UNSPECIFIED', 'UNSPECIFIED', 'UNSPECIFIED', ('UNSPECIFIED'), ('UNSPECIFIED'), ('UNSPECIFIED') ) ;
#36 = CARTESIAN_POINT ( 'NONE',  ( 8.466392301576975826E-15, 1.499999999999995559, 2.424871130596455870 ) ) ;
#37 = CARTESIAN_POINT ( 'NONE',  ( 8.466392301576975826E-15, -7.010801460773509064E-16, 2.424871130596455870 ) ) ;
#38 = VERTEX_POINT ( 'NONE', #101 ) ;
#39 = LOCAL_TIME ( 14, 47, 2.000000000000000000, #153 ) ;
#40 = PERSON_AND_ORGANIZATION ( #35, #42 ) ;
#41 = COORDINATED_UNIVERSAL_TIME_OFFSET ( 1, 0, .AHEAD. ) ;
#42 = ORGANIZATION ( 'UNSPECIFIED', 'UNSPECIFIED', '' ) ;
#43 = PERSON_AND_ORGANIZATION_ROLE ( 'classification_officer' ) ;
#44 = APPLICATION_CONTEXT ( 'configuration controlled 3d designs of mechanical parts and assemblies' ) ;
#45 = PRODUCT_RELATED_PRODUCT_CATEGORY ( 'detail', '', ( #178 ) ) ;
#46 = PRODUCT_DEFINITION_FORMATION_WITH_SPECIFIED_SOURCE ( 'ANY', '', #178, .NOT_KNOWN. ) ;
#47 = EDGE_LOOP ( 'NONE', ( #127 ) ) ;
#48 = CARTESIAN_POINT ( 'NONE',  ( 8.466392301576975826E-15, -2.969610668429772789E-16, 2.424871130596455870 ) ) ;
#49 = CARTESIAN_POINT ( 'NONE',  ( 8.466392301576975826E-15, -2.969610668429772789E-16, 2.424871130596455870 ) ) ;
#50 = DIRECTION ( 'NONE',  ( 3.491481338843133355E-15, -1.224646799147353207E-16, 1.000000000000000000 ) ) ;
#51 = CONICAL_SURFACE ( 'NONE', #99, 1.199999999999998623, 0.7853981633974453924 ) ;
#52 = FACE_OUTER_BOUND ( 'NONE', #111, .T. ) ;
#53 = ADVANCED_FACE ( 'NONE', ( #2 ), #102, .F. ) ;
#54 = DIRECTION ( 'NONE',  ( -4.275831445896958607E-31, -1.000000000000000000, -1.224646799147353207E-16 ) ) ;
#55 = APPLICATION_PROTOCOL_DEFINITION ( 'international standard', 'config_control_design', 1994, #44 ) ;
#56 = AXIS2_PLACEMENT_3D ( 'NONE', #143, #72, #98 ) ;
#57 = DATE_AND_TIME ( #25, #70 ) ;
#58 = ADVANCED_FACE ( 'NONE', ( #103, #69 ), #51, .T. ) ;
#59 =( NAMED_UNIT ( * ) PLANE_ANGLE_UNIT ( ) SI_UNIT ( $, .RADIAN. ) );
#60 = CC_DESIGN_APPROVAL ( #15, ( #46 ) ) ;
#61 = PERSON_AND_ORGANIZATION ( #35, #42 ) ;
#62 = AXIS2_PLACEMENT_3D ( 'NONE', #175, #146, #203 ) ;
#63 = ORIENTED_EDGE ( 'NONE', *, *, #115, .T. ) ;
#64 = EDGE_LOOP ( 'NONE', ( #155 ) ) ;
#65 = LOCAL_TIME ( 14, 47, 2.000000000000000000, #41 ) ;
#66 = CC_DESIGN_PERSON_AND_ORGANIZATION_ASSIGNMENT ( #40, #107, ( #150 ) ) ;
#67 = DIRECTION ( 'NONE',  ( 0.0000000000000000000, 1.000000000000000000, 0.0000000000000000000 ) ) ;
#68 = DIRECTION ( 'NONE',  ( 0.0000000000000000000, 1.000000000000000000, 0.0000000000000000000 ) ) ;
#69 = FACE_BOUND ( 'NONE', #83, .T. ) ;
#70 = LOCAL_TIME ( 14, 47, 2.000000000000000000, #166 ) ;
#71 = CC_DESIGN_PERSON_AND_ORGANIZATION_ASSIGNMENT ( #119, #93, ( #178 ) ) ;
#72 = DIRECTION ( 'NONE',  ( -3.491481338843133355E-15, 1.224646799147353207E-16, -1.000000000000000000 ) ) ;
#73 = VERTEX_POINT ( 'NONE', #131 ) ;
#74 = APPROVAL_STATUS ( 'not_yet_approved' ) ;
#75 = DATE_AND_TIME ( #197, #21 ) ;
#76 = PERSON_AND_ORGANIZATION ( #35, #42 ) ;
#77 = AXIS2_PLACEMENT_3D ( 'NONE', #170, #100, #68 ) ;
#78 = EDGE_CURVE ( 'NONE', #73, #73, #30, .T. ) ;
#79 = ORIENTED_EDGE ( 'NONE', *, *, #110, .F. ) ;
#80 = AXIS2_PLACEMENT_3D ( 'NONE', #48, #132, #190 ) ;
#81 = ORIENTED_EDGE ( 'NONE', *, *, #97, .T. ) ;
#82 = ADVANCED_FACE ( 'NONE', ( #118, #17 ), #164, .T. ) ;
#83 = EDGE_LOOP ( 'NONE', ( #141 ) ) ;
#84 = VERTEX_POINT ( 'NONE', #36 ) ;
#85 = DIRECTION ( 'NONE',  ( 0.0000000000000000000, 1.000000000000000000, 0.0000000000000000000 ) ) ;
#86 = CARTESIAN_POINT ( 'NONE',  ( -9.549558314590066577E-33, 3.349534162799988791E-34, -2.735102206719573847E-18 ) ) ;
#87 = LOCAL_TIME ( 14, 47, 2.000000000000000000, #148 ) ;
#88 = PLANE ( 'NONE',  #3 ) ;
#89 = CARTESIAN_POINT ( 'NONE',  ( 2.365919782978951696E-32, 0.1000000000000001582, 6.776263578034402713E-18 ) ) ;
#90 = SECURITY_CLASSIFICATION_LEVEL ( 'unclassified' ) ;
#91 = CLOSED_SHELL ( 'NONE', ( #195, #82, #160 ) ) ;
#92 = UNCERTAINTY_MEASURE_WITH_UNIT (LENGTH_MEASURE( 1.000000000000000082E-05 ), #151, 'distance_accuracy_value', 'NONE');
#93 = PERSON_AND_ORGANIZATION_ROLE ( 'design_owner' ) ;
#94 = APPROVAL_PERSON_ORGANIZATION ( #167, #27, #135 ) ;
#95 = ORIENTED_EDGE ( 'NONE', *, *, #174, .T. ) ;
#96 = CIRCLE ( 'NONE', #77, 1.499999999999995781 ) ;
#97 = EDGE_CURVE ( 'NONE', #116, #116, #199, .T. ) ;
#98 = DIRECTION ( 'NONE',  ( 4.275831445896958607E-31, 1.000000000000000000, 1.224646799147353454E-16 ) ) ;
#99 = AXIS2_PLACEMENT_3D ( 'NONE', #114, #171, #5 ) ;
#100 = DIRECTION ( 'NONE',  ( -3.491481338843133355E-15, 1.224646799147353207E-16, -1.000000000000000000 ) ) ;
#101 = CARTESIAN_POINT ( 'NONE',  ( 1.316288464743861212E-13, 1.499999999999994005, 37.69999999999999574 ) ) ;
#102 = PLANE ( 'NONE',  #62 ) ;
#103 = FACE_OUTER_BOUND ( 'NONE', #31, .T. ) ;
#104 = DATE_AND_TIME ( #179, #65 ) ;
#105 = CARTESIAN_POINT ( 'NONE',  ( 0.0000000000000000000, 0.0000000000000000000, 0.0000000000000000000 ) ) ;
#106 = AXIS2_PLACEMENT_3D ( 'NONE', #37, #50, #173 ) ;
#107 = PERSON_AND_ORGANIZATION_ROLE ( 'creator' ) ;
#108 = ADVANCED_FACE ( 'NONE', ( #117, #52 ), #159, .T. ) ;
#109 = DATE_TIME_ROLE ( 'classification_date' ) ;
#110 = EDGE_CURVE ( 'NONE', #84, #84, #96, .T. ) ;
#111 = EDGE_LOOP ( 'NONE', ( #63 ) ) ;
#112 = CIRCLE ( 'NONE', #191, 1.499999999999998446 ) ;
#113 = PLANE ( 'NONE',  #106 ) ;
#114 = CARTESIAN_POINT ( 'NONE',  ( 1.326762908760390423E-13, -4.653657836759941941E-15, 38.00000000000000000 ) ) ;
#115 = EDGE_CURVE ( 'NONE', #38, #38, #112, .T. ) ;
#116 = VERTEX_POINT ( 'NONE', #176 ) ;
#117 = FACE_OUTER_BOUND ( 'NONE', #47, .T. ) ;
#118 = FACE_BOUND ( 'NONE', #202, .T. ) ;
#119 = PERSON_AND_ORGANIZATION ( #35, #42 ) ;
#120 = PERSON_AND_ORGANIZATION ( #35, #42 ) ;
#121 = APPROVAL_STATUS ( 'not_yet_approved' ) ;
#122 = PERSON_AND_ORGANIZATION ( #35, #42 ) ;
#123 = CC_DESIGN_PERSON_AND_ORGANIZATION_ASSIGNMENT ( #120, #43, ( #180 ) ) ;
#124 = ADVANCED_BREP_SHAPE_REPRESENTATION ( '960611', ( #165, #161, #138 ), #145 ) ;
#125 = EDGE_LOOP ( 'NONE', ( #81 ) ) ;
#126 = EDGE_LOOP ( 'NONE', ( #79 ) ) ;
#127 = ORIENTED_EDGE ( 'NONE', *, *, #97, .F. ) ;
#128 = APPLICATION_CONTEXT ( 'configuration controlled 3d designs of mechanical parts and assemblies' ) ;
#129 = FACE_OUTER_BOUND ( 'NONE', #125, .T. ) ;
#130 = DIRECTION ( 'NONE',  ( -3.491481338843133355E-15, 1.224646799147353207E-16, -1.000000000000000000 ) ) ;
#131 = CARTESIAN_POINT ( 'NONE',  ( 1.326762908760390423E-13, 1.199999999999993960, 38.00000000000000000 ) ) ;
#132 = DIRECTION ( 'NONE',  ( 3.491481338843133355E-15, -1.224646799147353207E-16, 1.000000000000000000 ) ) ;
#133 = DIRECTION ( 'NONE',  ( 3.491481338843133355E-15, -1.224646799147353207E-16, 1.000000000000000000 ) ) ;
#134 = CC_DESIGN_APPROVAL ( #156, ( #150 ) ) ;
#135 = APPROVAL_ROLE ( '' ) ;
#136 = APPROVAL_DATE_TIME ( #75, #27 ) ;
#137 = APPROVAL_STATUS ( 'not_yet_approved' ) ;
#138 = AXIS2_PLACEMENT_3D ( 'NONE', #105, #13, #162 ) ;
#139 = EDGE_LOOP ( 'NONE', ( #95 ) ) ;
#140 = CC_DESIGN_DATE_AND_TIME_ASSIGNMENT ( #7, #109, ( #180 ) ) ;
#141 = ORIENTED_EDGE ( 'NONE', *, *, #78, .T. ) ;
#142 = CC_DESIGN_DATE_AND_TIME_ASSIGNMENT ( #57, #152, ( #150 ) ) ;
#143 = CARTESIAN_POINT ( 'NONE',  ( 0.0000000000000000000, 0.0000000000000000000, 0.0000000000000000000 ) ) ;
#144 = DIRECTION ( 'NONE',  ( 4.275831445896958607E-31, 1.000000000000000000, 1.224646799147353207E-16 ) ) ;
#145 =( GEOMETRIC_REPRESENTATION_CONTEXT ( 3 ) GLOBAL_UNCERTAINTY_ASSIGNED_CONTEXT ( ( #92 ) ) GLOBAL_UNIT_ASSIGNED_CONTEXT ( ( #151, #59, #9 ) ) REPRESENTATION_CONTEXT ( 'NONE', 'WORKASPACE' ) );
#146 = DIRECTION ( 'NONE',  ( -3.491481338843133355E-15, 1.224646799147353207E-16, -1.000000000000000000 ) ) ;
#147 = DIRECTION ( 'NONE',  ( 3.491481338843133355E-15, -1.224646799147353207E-16, 1.000000000000000000 ) ) ;
#148 = COORDINATED_UNIVERSAL_TIME_OFFSET ( 1, 0, .AHEAD. ) ;
#149 = CALENDAR_DATE ( 2021, 25, 11 ) ;
#150 = PRODUCT_DEFINITION ( 'UNKNOWN', '', #46, #192 ) ;
#151 =( LENGTH_UNIT ( ) NAMED_UNIT ( * ) SI_UNIT ( .MILLI., .METRE. ) );
#152 = DATE_TIME_ROLE ( 'creation_date' ) ;
#153 = COORDINATED_UNIVERSAL_TIME_OFFSET ( 1, 0, .AHEAD. ) ;
#154 = APPROVAL_PERSON_ORGANIZATION ( #11, #15, #6 ) ;
#155 = ORIENTED_EDGE ( 'NONE', *, *, #110, .T. ) ;
#156 = APPROVAL ( #121, 'UNSPECIFIED' ) ;
#157 = APPROVAL_PERSON_ORGANIZATION ( #76, #156, #181 ) ;
#158 = DIRECTION ( 'NONE',  ( -4.275831445896958607E-31, -1.000000000000000000, -1.224646799147353207E-16 ) ) ;
#159 = CYLINDRICAL_SURFACE ( 'NONE', #56, 1.499999999999996891 ) ;
#160 = ADVANCED_FACE ( 'NONE', ( #189 ), #113, .T. ) ;
#161 = MANIFOLD_SOLID_BREP ( 'Corps-Déplacer/Copier1[2]', #91 ) ;
#162 = DIRECTION ( 'NONE',  ( 1.000000000000000000, 0.0000000000000000000, 0.0000000000000000000 ) ) ;
#163 = DATE_AND_TIME ( #177, #39 ) ;
#164 = CONICAL_SURFACE ( 'NONE', #80, 1.499999999999995781, 0.5235987755982924874 ) ;
#165 = MANIFOLD_SOLID_BREP ( 'Corps-Déplacer/Copier1[1]', #185 ) ;
#166 = COORDINATED_UNIVERSAL_TIME_OFFSET ( 1, 0, .AHEAD. ) ;
#167 = PERSON_AND_ORGANIZATION ( #35, #42 ) ;
#168 = CC_DESIGN_APPROVAL ( #27, ( #180 ) ) ;
#169 = AXIS2_PLACEMENT_3D ( 'NONE', #49, #19, #4 ) ;
#170 = CARTESIAN_POINT ( 'NONE',  ( 8.466392301576975826E-15, -2.969610668429772789E-16, 2.424871130596455870 ) ) ;
#171 = DIRECTION ( 'NONE',  ( -3.491481338843133355E-15, 1.224646799147353207E-16, -1.000000000000000000 ) ) ;
#172 = AXIS2_PLACEMENT_3D ( 'NONE', #32, #33, #67 ) ;
#173 = DIRECTION ( 'NONE',  ( -4.275831445896958607E-31, -1.000000000000000000, -1.224646799147353207E-16 ) ) ;
#174 = EDGE_CURVE ( 'NONE', #22, #22, #18, .T. ) ;
#175 = CARTESIAN_POINT ( 'NONE',  ( 1.326762908760390423E-13, 8.998558695971067645E-33, 38.00000000000000000 ) ) ;
#176 = CARTESIAN_POINT ( 'NONE',  ( 8.466392301576975826E-15, 1.499999999999995559, 2.424871130596455870 ) ) ;
#177 = CALENDAR_DATE ( 2021, 25, 11 ) ;
#178 = PRODUCT ( '960611', '960611', '', ( #194 ) ) ;
#179 = CALENDAR_DATE ( 2021, 25, 11 ) ;
#180 = SECURITY_CLASSIFICATION ( '', '', #90 ) ;
#181 = APPROVAL_ROLE ( '' ) ;
#182 = PERSON_AND_ORGANIZATION_ROLE ( 'design_supplier' ) ;
#183 = CC_DESIGN_PERSON_AND_ORGANIZATION_ASSIGNMENT ( #122, #182, ( #46 ) ) ;
#184 = SHAPE_DEFINITION_REPRESENTATION ( #8, #124 ) ;
#185 = CLOSED_SHELL ( 'NONE', ( #10, #108, #58, #53 ) ) ;
#186 = EDGE_LOOP ( 'NONE', ( #16 ) ) ;
#187 = PLANE ( 'NONE',  #196 ) ;
#188 = DIRECTION ( 'NONE',  ( -3.491481338843133355E-15, 1.224646799147353207E-16, -1.000000000000000000 ) ) ;
#189 = FACE_OUTER_BOUND ( 'NONE', #126, .T. ) ;
#190 = DIRECTION ( 'NONE',  ( 0.0000000000000000000, -1.000000000000000000, 0.0000000000000000000 ) ) ;
#191 = AXIS2_PLACEMENT_3D ( 'NONE', #193, #130, #85 ) ;
#192 = DESIGN_CONTEXT ( 'detailed design', #128, 'design' ) ;
#193 = CARTESIAN_POINT ( 'NONE',  ( 1.316288464743861212E-13, -4.616918432785521081E-15, 37.69999999999999574 ) ) ;
#194 = MECHANICAL_CONTEXT ( 'NONE', #44, 'mechanical' ) ;
#195 = ADVANCED_FACE ( 'NONE', ( #1 ), #88, .F. ) ;
#196 = AXIS2_PLACEMENT_3D ( 'NONE', #29, #147, #54 ) ;
#197 = CALENDAR_DATE ( 2021, 25, 11 ) ;
#198 = APPLICATION_PROTOCOL_DEFINITION ( 'international standard', 'config_control_design', 1994, #128 ) ;
#199 = CIRCLE ( 'NONE', #169, 1.499999999999995781 ) ;
#200 = APPROVAL_DATE_TIME ( #104, #15 ) ;
#201 = CC_DESIGN_PERSON_AND_ORGANIZATION_ASSIGNMENT ( #61, #23, ( #46 ) ) ;
#202 = EDGE_LOOP ( 'NONE', ( #14 ) ) ;
#203 = DIRECTION ( 'NONE',  ( 4.275831445896958607E-31, 1.000000000000000000, 1.224646799147353207E-16 ) ) ;
ENDSEC;
END-ISO-10303-21;
