ISO-10303-21;
HEADER;
FILE_DESCRIPTION (( 'STEP AP203' ),
    '1' );
FILE_NAME ('960610.step',
    '2021-11-25T13:47:02',
    ( '' ),
    ( '' ),
    'SwSTEP 2.0',
    'SolidWorks 2019',
    '' );
FILE_SCHEMA (( 'CONFIG_CONTROL_DESIGN' ));
ENDSEC;

DATA;
#1 = CIRCLE ( 'NONE', #117, 1.199999999999998623 ) ;
#2 = CC_DESIGN_PERSON_AND_ORGANIZATION_ASSIGNMENT ( #137, #90, ( #110 ) ) ;
#3 = ADVANCED_FACE ( 'NONE', ( #159 ), #148, .F. ) ;
#4 = EDGE_LOOP ( 'NONE', ( #195 ) ) ;
#5 =( NAMED_UNIT ( * ) SI_UNIT ( $, .STERADIAN. ) SOLID_ANGLE_UNIT ( ) );
#6 = CIRCLE ( 'NONE', #94, 1.499999999999998446 ) ;
#7 = FACE_OUTER_BOUND ( 'NONE', #164, .T. ) ;
#8 = EDGE_CURVE ( 'NONE', #157, #157, #113, .T. ) ;
#9 = CARTESIAN_POINT ( 'NONE',  ( 8.617577878390838421E-15, 7.135994344001607211E-16, 2.468172400785674903 ) ) ;
#10 = APPROVAL_DATE_TIME ( #153, #129 ) ;
#11 = CARTESIAN_POINT ( 'NONE',  ( 8.617577878390838421E-15, -3.022639430366015140E-16, 2.468172400785674903 ) ) ;
#12 = CLOSED_SHELL ( 'NONE', ( #3, #143, #61, #203 ) ) ;
#13 = FACE_OUTER_BOUND ( 'NONE', #18, .T. ) ;
#14 = DATE_AND_TIME ( #176, #177 ) ;
#15 = VERTEX_POINT ( 'NONE', #77 ) ;
#16 = ADVANCED_FACE ( 'NONE', ( #124 ), #116, .T. ) ;
#17 = ORIENTED_EDGE ( 'NONE', *, *, #55, .F. ) ;
#18 = EDGE_LOOP ( 'NONE', ( #17 ) ) ;
#19 = PERSON_AND_ORGANIZATION ( #64, #78 ) ;
#20 = DIRECTION ( 'NONE',  ( 0.0000000000000000000, 1.000000000000000000, 0.0000000000000000000 ) ) ;
#21 = CC_DESIGN_PERSON_AND_ORGANIZATION_ASSIGNMENT ( #147, #130, ( #70 ) ) ;
#22 = CARTESIAN_POINT ( 'NONE',  ( 1.326762908760390423E-13, 8.998558695971067645E-33, 38.00000000000000000 ) ) ;
#23 = CC_DESIGN_SECURITY_CLASSIFICATION ( #188, ( #70 ) ) ;
#24 =( LENGTH_UNIT ( ) NAMED_UNIT ( * ) SI_UNIT ( .MILLI., .METRE. ) );
#25 = PERSON_AND_ORGANIZATION ( #64, #78 ) ;
#26 = CARTESIAN_POINT ( 'NONE',  ( 8.617577878390838421E-15, -3.022639430366015140E-16, 2.468172400785674903 ) ) ;
#27 = PLANE ( 'NONE',  #63 ) ;
#28 = EDGE_CURVE ( 'NONE', #74, #74, #6, .T. ) ;
#29 = ADVANCED_BREP_SHAPE_REPRESENTATION ( '960610', ( #158, #89, #174 ), #50 ) ;
#30 = CC_DESIGN_APPROVAL ( #175, ( #70 ) ) ;
#31 = EDGE_LOOP ( 'NONE', ( #179 ) ) ;
#32 = DATE_AND_TIME ( #39, #57 ) ;
#33 = CIRCLE ( 'NONE', #93, 0.07500000000000044131 ) ;
#34 = COORDINATED_UNIVERSAL_TIME_OFFSET ( 1, 0, .AHEAD. ) ;
#35 = DIRECTION ( 'NONE',  ( 3.491481338843133355E-15, -1.224646799147353207E-16, 1.000000000000000000 ) ) ;
#36 = EDGE_CURVE ( 'NONE', #152, #152, #33, .T. ) ;
#37 = DIRECTION ( 'NONE',  ( 4.275831445896958607E-31, 1.000000000000000000, 1.224646799147352961E-16 ) ) ;
#38 = FACE_OUTER_BOUND ( 'NONE', #80, .T. ) ;
#39 = CALENDAR_DATE ( 2021, 25, 11 ) ;
#40 = CC_DESIGN_DATE_AND_TIME_ASSIGNMENT ( #149, #118, ( #110 ) ) ;
#41 = FACE_OUTER_BOUND ( 'NONE', #97, .T. ) ;
#42 = SHAPE_DEFINITION_REPRESENTATION ( #101, #29 ) ;
#43 = AXIS2_PLACEMENT_3D ( 'NONE', #169, #167, #37 ) ;
#44 = DESIGN_CONTEXT ( 'detailed design', #142, 'design' ) ;
#45 = CIRCLE ( 'NONE', #81, 1.499999999999994227 ) ;
#46 = EDGE_LOOP ( 'NONE', ( #193 ) ) ;
#47 = LOCAL_TIME ( 14, 47, 2.000000000000000000, #170 ) ;
#48 = ORIENTED_EDGE ( 'NONE', *, *, #8, .T. ) ;
#49 = ORIENTED_EDGE ( 'NONE', *, *, #161, .F. ) ;
#50 =( GEOMETRIC_REPRESENTATION_CONTEXT ( 3 ) GLOBAL_UNCERTAINTY_ASSIGNED_CONTEXT ( ( #192 ) ) GLOBAL_UNIT_ASSIGNED_CONTEXT ( ( #24, #103, #5 ) ) REPRESENTATION_CONTEXT ( 'NONE', 'WORKASPACE' ) );
#51 = CALENDAR_DATE ( 2021, 25, 11 ) ;
#52 = DIRECTION ( 'NONE',  ( -3.491481338843133355E-15, 1.224646799147353207E-16, -1.000000000000000000 ) ) ;
#53 = PERSON_AND_ORGANIZATION ( #64, #78 ) ;
#54 = CARTESIAN_POINT ( 'NONE',  ( 8.617577878390838421E-15, -3.022639430366015140E-16, 2.468172400785674903 ) ) ;
#55 = EDGE_CURVE ( 'NONE', #56, #56, #45, .T. ) ;
#56 = VERTEX_POINT ( 'NONE', #172 ) ;
#57 = LOCAL_TIME ( 14, 47, 2.000000000000000000, #102 ) ;
#58 = APPLICATION_PROTOCOL_DEFINITION ( 'international standard', 'config_control_design', 1994, #142 ) ;
#59 = DIRECTION ( 'NONE',  ( -4.275831445896958607E-31, -1.000000000000000000, -1.224646799147353207E-16 ) ) ;
#60 = APPROVAL_DATE_TIME ( #14, #75 ) ;
#61 = ADVANCED_FACE ( 'NONE', ( #73, #166 ), #62, .T. ) ;
#62 = CONICAL_SURFACE ( 'NONE', #65, 1.199999999999998623, 0.7853981633974453924 ) ;
#63 = AXIS2_PLACEMENT_3D ( 'NONE', #22, #154, #138 ) ;
#64 = PERSON ( 'UNSPECIFIED', 'UNSPECIFIED', 'UNSPECIFIED', ('UNSPECIFIED'), ('UNSPECIFIED'), ('UNSPECIFIED') ) ;
#65 = AXIS2_PLACEMENT_3D ( 'NONE', #173, #182, #20 ) ;
#66 = CARTESIAN_POINT ( 'NONE',  ( 8.617577878390838421E-15, 7.135994344001607211E-16, 2.468172400785674903 ) ) ;
#67 = ORIENTED_EDGE ( 'NONE', *, *, #28, .T. ) ;
#68 = PERSON_AND_ORGANIZATION ( #64, #78 ) ;
#69 = DIRECTION ( 'NONE',  ( -4.275831445896958607E-31, -1.000000000000000000, -1.224646799147353207E-16 ) ) ;
#70 = PRODUCT_DEFINITION_FORMATION_WITH_SPECIFIED_SOURCE ( 'ANY', '', #111, .NOT_KNOWN. ) ;
#71 = DIRECTION ( 'NONE',  ( -3.491481338843133355E-15, 1.224646799147353207E-16, -1.000000000000000000 ) ) ;
#72 = PERSON_AND_ORGANIZATION_ROLE ( 'classification_officer' ) ;
#73 = FACE_OUTER_BOUND ( 'NONE', #162, .T. ) ;
#74 = VERTEX_POINT ( 'NONE', #201 ) ;
#75 = APPROVAL ( #82, 'UNSPECIFIED' ) ;
#76 = LOCAL_TIME ( 14, 47, 2.000000000000000000, #139 ) ;
#77 = CARTESIAN_POINT ( 'NONE',  ( 1.326762908760390423E-13, 1.199999999999993960, 38.00000000000000000 ) ) ;
#78 = ORGANIZATION ( 'UNSPECIFIED', 'UNSPECIFIED', '' ) ;
#79 = EDGE_LOOP ( 'NONE', ( #95 ) ) ;
#80 = EDGE_LOOP ( 'NONE', ( #48 ) ) ;
#81 = AXIS2_PLACEMENT_3D ( 'NONE', #54, #71, #171 ) ;
#82 = APPROVAL_STATUS ( 'not_yet_approved' ) ;
#83 = APPLICATION_PROTOCOL_DEFINITION ( 'international standard', 'config_control_design', 1994, #185 ) ;
#84 = DIRECTION ( 'NONE',  ( 0.0000000000000000000, 1.000000000000000000, 0.0000000000000000000 ) ) ;
#85 = CARTESIAN_POINT ( 'NONE',  ( 8.617577878390838421E-15, 1.499999999999994005, 2.468172400785674903 ) ) ;
#86 = CC_DESIGN_APPROVAL ( #75, ( #188 ) ) ;
#87 = DIRECTION ( 'NONE',  ( 3.491481338843133355E-15, -1.224646799147353207E-16, 1.000000000000000000 ) ) ;
#88 = CC_DESIGN_PERSON_AND_ORGANIZATION_ASSIGNMENT ( #168, #123, ( #70 ) ) ;
#89 = MANIFOLD_SOLID_BREP ( 'Corps-Déplacer/Copier1[2]', #194 ) ;
#90 = PERSON_AND_ORGANIZATION_ROLE ( 'creator' ) ;
#91 = DIRECTION ( 'NONE',  ( 0.0000000000000000000, 1.000000000000000000, 0.0000000000000000000 ) ) ;
#92 = DIRECTION ( 'NONE',  ( 4.275831445896958607E-31, 1.000000000000000000, 1.224646799147353454E-16 ) ) ;
#93 = AXIS2_PLACEMENT_3D ( 'NONE', #121, #108, #92 ) ;
#94 = AXIS2_PLACEMENT_3D ( 'NONE', #119, #200, #84 ) ;
#95 = ORIENTED_EDGE ( 'NONE', *, *, #55, .T. ) ;
#96 = AXIS2_PLACEMENT_3D ( 'NONE', #104, #87, #59 ) ;
#97 = EDGE_LOOP ( 'NONE', ( #49 ) ) ;
#98 = PRODUCT_RELATED_PRODUCT_CATEGORY ( 'detail', '', ( #111 ) ) ;
#99 = DATE_AND_TIME ( #202, #76 ) ;
#100 = ORIENTED_EDGE ( 'NONE', *, *, #28, .F. ) ;
#101 = PRODUCT_DEFINITION_SHAPE ( 'NONE', 'NONE',  #110 ) ;
#102 = COORDINATED_UNIVERSAL_TIME_OFFSET ( 1, 0, .AHEAD. ) ;
#103 =( NAMED_UNIT ( * ) PLANE_ANGLE_UNIT ( ) SI_UNIT ( $, .RADIAN. ) );
#104 = CARTESIAN_POINT ( 'NONE',  ( -4.204769007218931131E-33, 1.474834434472688590E-34, -1.204293707785400557E-18 ) ) ;
#105 = DIRECTION ( 'NONE',  ( 0.0000000000000000000, 0.0000000000000000000, 1.000000000000000000 ) ) ;
#106 = AXIS2_PLACEMENT_3D ( 'NONE', #26, #35, #150 ) ;
#107 = SECURITY_CLASSIFICATION_LEVEL ( 'unclassified' ) ;
#108 = DIRECTION ( 'NONE',  ( -3.491481338843133355E-15, 1.224646799147353207E-16, -1.000000000000000000 ) ) ;
#109 = CYLINDRICAL_SURFACE ( 'NONE', #43, 1.499999999999996447 ) ;
#110 = PRODUCT_DEFINITION ( 'UNKNOWN', '', #70, #44 ) ;
#111 = PRODUCT ( '960610', '960610', '', ( #122 ) ) ;
#112 = DIRECTION ( 'NONE',  ( -4.275831445896958607E-31, -1.000000000000000000, -1.224646799147353207E-16 ) ) ;
#113 = CIRCLE ( 'NONE', #144, 1.499999999999994227 ) ;
#114 = DIRECTION ( 'NONE',  ( 3.491481338843133355E-15, -1.224646799147353207E-16, 1.000000000000000000 ) ) ;
#115 = CALENDAR_DATE ( 2021, 25, 11 ) ;
#116 = PLANE ( 'NONE',  #128 ) ;
#117 = AXIS2_PLACEMENT_3D ( 'NONE', #132, #52, #91 ) ;
#118 = DATE_TIME_ROLE ( 'creation_date' ) ;
#119 = CARTESIAN_POINT ( 'NONE',  ( 1.316288464743861212E-13, -4.616918432785521081E-15, 37.69999999999999574 ) ) ;
#120 = APPROVAL_ROLE ( '' ) ;
#121 = CARTESIAN_POINT ( 'NONE',  ( -8.409538014437862262E-33, 2.949668868945377181E-34, -2.408587415570801115E-18 ) ) ;
#122 = MECHANICAL_CONTEXT ( 'NONE', #185, 'mechanical' ) ;
#123 = PERSON_AND_ORGANIZATION_ROLE ( 'design_supplier' ) ;
#124 = FACE_OUTER_BOUND ( 'NONE', #197, .T. ) ;
#125 = CC_DESIGN_PERSON_AND_ORGANIZATION_ASSIGNMENT ( #135, #199, ( #111 ) ) ;
#126 = APPROVAL_PERSON_ORGANIZATION ( #68, #175, #181 ) ;
#127 = ADVANCED_FACE ( 'NONE', ( #189, #38 ), #191, .T. ) ;
#128 = AXIS2_PLACEMENT_3D ( 'NONE', #9, #141, #69 ) ;
#129 = APPROVAL ( #183, 'UNSPECIFIED' ) ;
#130 = PERSON_AND_ORGANIZATION_ROLE ( 'creator' ) ;
#131 = APPROVAL_STATUS ( 'not_yet_approved' ) ;
#132 = CARTESIAN_POINT ( 'NONE',  ( 1.326762908760390423E-13, -4.653657836759941941E-15, 38.00000000000000000 ) ) ;
#133 = LOCAL_TIME ( 14, 47, 2.000000000000000000, #186 ) ;
#134 = CC_DESIGN_PERSON_AND_ORGANIZATION_ASSIGNMENT ( #25, #72, ( #188 ) ) ;
#135 = PERSON_AND_ORGANIZATION ( #64, #78 ) ;
#136 = CARTESIAN_POINT ( 'NONE',  ( 2.365919782978951696E-32, 0.07500000000000044131, 6.776263578034402713E-18 ) ) ;
#137 = PERSON_AND_ORGANIZATION ( #64, #78 ) ;
#138 = DIRECTION ( 'NONE',  ( 4.275831445896958607E-31, 1.000000000000000000, 1.224646799147353207E-16 ) ) ;
#139 = COORDINATED_UNIVERSAL_TIME_OFFSET ( 1, 0, .AHEAD. ) ;
#140 = DIRECTION ( 'NONE',  ( -3.491481338843133355E-15, 1.224646799147353207E-16, -1.000000000000000000 ) ) ;
#141 = DIRECTION ( 'NONE',  ( 3.491481338843133355E-15, -1.224646799147353207E-16, 1.000000000000000000 ) ) ;
#142 = APPLICATION_CONTEXT ( 'configuration controlled 3d designs of mechanical parts and assemblies' ) ;
#143 = ADVANCED_FACE ( 'NONE', ( #13, #7 ), #109, .T. ) ;
#144 = AXIS2_PLACEMENT_3D ( 'NONE', #11, #140, #187 ) ;
#145 = APPROVAL_PERSON_ORGANIZATION ( #53, #129, #120 ) ;
#146 = ORIENTED_EDGE ( 'NONE', *, *, #8, .F. ) ;
#147 = PERSON_AND_ORGANIZATION ( #64, #78 ) ;
#148 = PLANE ( 'NONE',  #180 ) ;
#149 = DATE_AND_TIME ( #51, #47 ) ;
#150 = DIRECTION ( 'NONE',  ( 0.0000000000000000000, -1.000000000000000000, 0.0000000000000000000 ) ) ;
#151 = DIRECTION ( 'NONE',  ( 1.000000000000000000, 0.0000000000000000000, 0.0000000000000000000 ) ) ;
#152 = VERTEX_POINT ( 'NONE', #136 ) ;
#153 = DATE_AND_TIME ( #115, #133 ) ;
#154 = DIRECTION ( 'NONE',  ( -3.491481338843133355E-15, 1.224646799147353207E-16, -1.000000000000000000 ) ) ;
#155 = CARTESIAN_POINT ( 'NONE',  ( 0.0000000000000000000, 0.0000000000000000000, 0.0000000000000000000 ) ) ;
#156 = FACE_OUTER_BOUND ( 'NONE', #31, .T. ) ;
#157 = VERTEX_POINT ( 'NONE', #85 ) ;
#158 = MANIFOLD_SOLID_BREP ( 'Corps-Déplacer/Copier1[1]', #12 ) ;
#159 = FACE_OUTER_BOUND ( 'NONE', #79, .T. ) ;
#160 = CC_DESIGN_APPROVAL ( #129, ( #110 ) ) ;
#161 = EDGE_CURVE ( 'NONE', #15, #15, #1, .T. ) ;
#162 = EDGE_LOOP ( 'NONE', ( #100 ) ) ;
#163 = DATE_TIME_ROLE ( 'classification_date' ) ;
#164 = EDGE_LOOP ( 'NONE', ( #67 ) ) ;
#165 = ADVANCED_FACE ( 'NONE', ( #156 ), #184, .F. ) ;
#166 = FACE_BOUND ( 'NONE', #46, .T. ) ;
#167 = DIRECTION ( 'NONE',  ( -3.491481338843133355E-15, 1.224646799147353207E-16, -1.000000000000000000 ) ) ;
#168 = PERSON_AND_ORGANIZATION ( #64, #78 ) ;
#169 = CARTESIAN_POINT ( 'NONE',  ( 0.0000000000000000000, 0.0000000000000000000, 0.0000000000000000000 ) ) ;
#170 = COORDINATED_UNIVERSAL_TIME_OFFSET ( 1, 0, .AHEAD. ) ;
#171 = DIRECTION ( 'NONE',  ( 0.0000000000000000000, 1.000000000000000000, 0.0000000000000000000 ) ) ;
#172 = CARTESIAN_POINT ( 'NONE',  ( 8.617577878390838421E-15, 1.499999999999994005, 2.468172400785674903 ) ) ;
#173 = CARTESIAN_POINT ( 'NONE',  ( 1.326762908760390423E-13, -4.653657836759941941E-15, 38.00000000000000000 ) ) ;
#174 = AXIS2_PLACEMENT_3D ( 'NONE', #155, #105, #151 ) ;
#175 = APPROVAL ( #131, 'UNSPECIFIED' ) ;
#176 = CALENDAR_DATE ( 2021, 25, 11 ) ;
#177 = LOCAL_TIME ( 14, 47, 2.000000000000000000, #34 ) ;
#178 = APPROVAL_PERSON_ORGANIZATION ( #19, #75, #196 ) ;
#179 = ORIENTED_EDGE ( 'NONE', *, *, #36, .T. ) ;
#180 = AXIS2_PLACEMENT_3D ( 'NONE', #66, #114, #112 ) ;
#181 = APPROVAL_ROLE ( '' ) ;
#182 = DIRECTION ( 'NONE',  ( -3.491481338843133355E-15, 1.224646799147353207E-16, -1.000000000000000000 ) ) ;
#183 = APPROVAL_STATUS ( 'not_yet_approved' ) ;
#184 = PLANE ( 'NONE',  #96 ) ;
#185 = APPLICATION_CONTEXT ( 'configuration controlled 3d designs of mechanical parts and assemblies' ) ;
#186 = COORDINATED_UNIVERSAL_TIME_OFFSET ( 1, 0, .AHEAD. ) ;
#187 = DIRECTION ( 'NONE',  ( 0.0000000000000000000, 1.000000000000000000, 0.0000000000000000000 ) ) ;
#188 = SECURITY_CLASSIFICATION ( '', '', #107 ) ;
#189 = FACE_BOUND ( 'NONE', #4, .T. ) ;
#190 = CC_DESIGN_DATE_AND_TIME_ASSIGNMENT ( #99, #163, ( #188 ) ) ;
#191 = CONICAL_SURFACE ( 'NONE', #106, 1.499999999999994227, 0.5235987755982925984 ) ;
#192 = UNCERTAINTY_MEASURE_WITH_UNIT (LENGTH_MEASURE( 1.000000000000000082E-05 ), #24, 'distance_accuracy_value', 'NONE');
#193 = ORIENTED_EDGE ( 'NONE', *, *, #161, .T. ) ;
#194 = CLOSED_SHELL ( 'NONE', ( #165, #127, #16 ) ) ;
#195 = ORIENTED_EDGE ( 'NONE', *, *, #36, .F. ) ;
#196 = APPROVAL_ROLE ( '' ) ;
#197 = EDGE_LOOP ( 'NONE', ( #146 ) ) ;
#198 = APPROVAL_DATE_TIME ( #32, #175 ) ;
#199 = PERSON_AND_ORGANIZATION_ROLE ( 'design_owner' ) ;
#200 = DIRECTION ( 'NONE',  ( -3.491481338843133355E-15, 1.224646799147353207E-16, -1.000000000000000000 ) ) ;
#201 = CARTESIAN_POINT ( 'NONE',  ( 1.316288464743861212E-13, 1.499999999999994005, 37.69999999999999574 ) ) ;
#202 = CALENDAR_DATE ( 2021, 25, 11 ) ;
#203 = ADVANCED_FACE ( 'NONE', ( #41 ), #27, .F. ) ;
ENDSEC;
END-ISO-10303-21;
