ISO-10303-21;
HEADER;
FILE_DESCRIPTION (( 'STEP AP203' ),
    '1' );
FILE_NAME ('960591.step',
    '2021-11-29T14:58:45',
    ( '' ),
    ( '' ),
    'SwSTEP 2.0',
    'SolidWorks 2019',
    '' );
FILE_SCHEMA (( 'CONFIG_CONTROL_DESIGN' ));
ENDSEC;

DATA;
#1 = CARTESIAN_POINT ( 'NONE',  ( 0.0000000000000000000, 0.0000000000000000000, 0.0000000000000000000 ) ) ;
#2 = ORIENTED_EDGE ( 'NONE', *, *, #169, .F. ) ;
#3 = AXIS2_PLACEMENT_3D ( 'NONE', #75, #244, #38 ) ;
#4 = ADVANCED_FACE ( 'NONE', ( #267, #58 ), #145, .T. ) ;
#5 = AXIS2_PLACEMENT_3D ( 'NONE', #126, #291, #57 ) ;
#6 = APPLICATION_PROTOCOL_DEFINITION ( 'international standard', 'config_control_design', 1994, #181 ) ;
#7 = EDGE_LOOP ( 'NONE', ( #147 ) ) ;
#8 = CC_DESIGN_PERSON_AND_ORGANIZATION_ASSIGNMENT ( #217, #94, ( #285 ) ) ;
#9 = DATE_AND_TIME ( #72, #37 ) ;
#10 = EDGE_LOOP ( 'NONE', ( #240 ) ) ;
#11 = EDGE_CURVE ( 'NONE', #253, #253, #92, .T. ) ;
#12 = CARTESIAN_POINT ( 'NONE',  ( 1.316288464743861212E-13, -4.616918432785520292E-15, 37.69999999999999574 ) ) ;
#13 = CARTESIAN_POINT ( 'NONE',  ( 2.094888803305880013E-14, -7.347880794884118750E-16, 6.000000000000000000 ) ) ;
#14 = CARTESIAN_POINT ( 'NONE',  ( 4.538925740496073362E-14, -1.734723475976807094E-15, 13.00000000000000000 ) ) ;
#15 = CIRCLE ( 'NONE', #64, 0.6299999999999991163 ) ;
#16 = FACE_OUTER_BOUND ( 'NONE', #186, .T. ) ;
#17 = EDGE_LOOP ( 'NONE', ( #30 ) ) ;
#18 = PERSON_AND_ORGANIZATION ( #261, #173 ) ;
#19 = FACE_BOUND ( 'NONE', #77, .T. ) ;
#20 = DIRECTION ( 'NONE',  ( 4.275831445896957731E-31, 1.000000000000000000, 1.224646799147352961E-16 ) ) ;
#21 = CARTESIAN_POINT ( 'NONE',  ( 8.728703347107835360E-16, 0.6884999999999992237, 0.2500000000000000555 ) ) ;
#22 = DIRECTION ( 'NONE',  ( 3.491481338843133355E-15, -1.224646799147352961E-16, 1.000000000000000000 ) ) ;
#23 = DATE_AND_TIME ( #297, #255 ) ;
#24 = CARTESIAN_POINT ( 'NONE',  ( 6.322720941433207844E-14, -2.217711971330115273E-15, 18.10899251011943534 ) ) ;
#25 = COORDINATED_UNIVERSAL_TIME_OFFSET ( 1, 0, .AHEAD. ) ;
#26 = EDGE_LOOP ( 'NONE', ( #98 ) ) ;
#27 = PERSON_AND_ORGANIZATION_ROLE ( 'design_owner' ) ;
#28 = PRODUCT_RELATED_PRODUCT_CATEGORY ( 'detail', '', ( #33 ) ) ;
#29 = CIRCLE ( 'NONE', #5, 1.200000000000003286 ) ;
#30 = ORIENTED_EDGE ( 'NONE', *, *, #83, .T. ) ;
#31 = CLOSED_SHELL ( 'NONE', ( #300, #149, #4, #104, #203, #123, #295, #60 ) ) ;
#32 = LOCAL_TIME ( 15, 58, 45.00000000000000000, #48 ) ;
#33 = PRODUCT ( '960591', '960591', '', ( #47 ) ) ;
#34 = DIRECTION ( 'NONE',  ( -3.491481338843133355E-15, 1.224646799147352961E-16, -1.000000000000000000 ) ) ;
#35 = DIRECTION ( 'NONE',  ( 0.0000000000000000000, 1.000000000000000000, 0.0000000000000000000 ) ) ;
#36 = FACE_OUTER_BOUND ( 'NONE', #10, .T. ) ;
#37 = LOCAL_TIME ( 15, 58, 45.00000000000000000, #25 ) ;
#38 = DIRECTION ( 'NONE',  ( 0.0000000000000000000, 1.000000000000000000, 0.0000000000000000000 ) ) ;
#39 = CARTESIAN_POINT ( 'NONE',  ( 0.0000000000000000000, 0.0000000000000000000, 0.0000000000000000000 ) ) ;
#40 = VERTEX_POINT ( 'NONE', #276 ) ;
#41 = CARTESIAN_POINT ( 'NONE',  ( 2.094888803305880013E-14, 0.6884999999999992237, 6.000000000000000000 ) ) ;
#42 = ADVANCED_BREP_SHAPE_REPRESENTATION ( '960591', ( #144, #242, #45 ), #50 ) ;
#43 = DIRECTION ( 'NONE',  ( 0.0000000000000000000, 1.000000000000000000, 0.0000000000000000000 ) ) ;
#44 = CARTESIAN_POINT ( 'NONE',  ( 4.538925740496073362E-14, 0.6299999999999985612, 13.00000000000000000 ) ) ;
#45 = AXIS2_PLACEMENT_3D ( 'NONE', #1, #202, #183 ) ;
#46 = EDGE_CURVE ( 'NONE', #223, #223, #166, .T. ) ;
#47 = MECHANICAL_CONTEXT ( 'NONE', #181, 'mechanical' ) ;
#48 = COORDINATED_UNIVERSAL_TIME_OFFSET ( 1, 0, .AHEAD. ) ;
#49 = EDGE_LOOP ( 'NONE', ( #235 ) ) ;
#50 =( GEOMETRIC_REPRESENTATION_CONTEXT ( 3 ) GLOBAL_UNCERTAINTY_ASSIGNED_CONTEXT ( ( #238 ) ) GLOBAL_UNIT_ASSIGNED_CONTEXT ( ( #228, #257, #180 ) ) REPRESENTATION_CONTEXT ( 'NONE', 'WORKASPACE' ) );
#51 = ORIENTED_EDGE ( 'NONE', *, *, #55, .T. ) ;
#52 = CARTESIAN_POINT ( 'NONE',  ( 0.0000000000000000000, 0.0000000000000000000, 0.0000000000000000000 ) ) ;
#53 = APPROVAL_ROLE ( '' ) ;
#54 = TOROIDAL_SURFACE ( 'NONE', #156, 2.630000000000000338, 2.000000000000000000 ) ;
#55 = EDGE_CURVE ( 'NONE', #178, #178, #76, .T. ) ;
#56 = DIRECTION ( 'NONE',  ( 0.0000000000000000000, 1.000000000000000000, 0.0000000000000000000 ) ) ;
#57 = DIRECTION ( 'NONE',  ( 0.0000000000000000000, 1.000000000000000000, 0.0000000000000000000 ) ) ;
#58 = FACE_OUTER_BOUND ( 'NONE', #79, .T. ) ;
#59 = DIRECTION ( 'NONE',  ( -3.491481338843133355E-15, 1.224646799147352961E-16, -1.000000000000000000 ) ) ;
#60 = ADVANCED_FACE ( 'NONE', ( #16 ), #97, .F. ) ;
#61 = APPROVAL_DATE_TIME ( #23, #273 ) ;
#62 = FACE_OUTER_BOUND ( 'NONE', #206, .T. ) ;
#63 = VERTEX_POINT ( 'NONE', #41 ) ;
#64 = AXIS2_PLACEMENT_3D ( 'NONE', #85, #272, #293 ) ;
#65 = CARTESIAN_POINT ( 'NONE',  ( -2.109741333904351662E-31, 7.399976459421404120E-33, -6.042539338341109274E-17 ) ) ;
#66 = FACE_OUTER_BOUND ( 'NONE', #229, .T. ) ;
#67 = DIRECTION ( 'NONE',  ( 3.491481338843133355E-15, -1.224646799147352961E-16, 1.000000000000000000 ) ) ;
#68 = DATE_TIME_ROLE ( 'classification_date' ) ;
#69 = VERTEX_POINT ( 'NONE', #44 ) ;
#70 = AXIS2_PLACEMENT_3D ( 'NONE', #176, #201, #153 ) ;
#71 = ORIENTED_EDGE ( 'NONE', *, *, #188, .T. ) ;
#72 = CALENDAR_DATE ( 2021, 29, 11 ) ;
#73 = ORIENTED_EDGE ( 'NONE', *, *, #117, .F. ) ;
#74 = CC_DESIGN_PERSON_AND_ORGANIZATION_ASSIGNMENT ( #222, #194, ( #87 ) ) ;
#75 = CARTESIAN_POINT ( 'NONE',  ( 6.322720941433207844E-14, -2.217711971330115273E-15, 18.10899251011943534 ) ) ;
#76 = CIRCLE ( 'NONE', #132, 1.500000000000003331 ) ;
#77 = EDGE_LOOP ( 'NONE', ( #286 ) ) ;
#78 = ORIENTED_EDGE ( 'NONE', *, *, #83, .F. ) ;
#79 = EDGE_LOOP ( 'NONE', ( #234 ) ) ;
#80 = APPROVAL_PERSON_ORGANIZATION ( #18, #273, #198 ) ;
#81 = CARTESIAN_POINT ( 'NONE',  ( 4.538925740496073362E-14, -1.592040838891558701E-15, 13.00000000000000000 ) ) ;
#82 = DIRECTION ( 'NONE',  ( 3.491481338843133355E-15, -1.224646799147352961E-16, 1.000000000000000000 ) ) ;
#83 = EDGE_CURVE ( 'NONE', #40, #40, #219, .T. ) ;
#84 = COORDINATED_UNIVERSAL_TIME_OFFSET ( 1, 0, .AHEAD. ) ;
#85 = CARTESIAN_POINT ( 'NONE',  ( 2.130266228280327256E-14, -7.471968097814934922E-16, 6.101324972242782252 ) ) ;
#86 = PERSON_AND_ORGANIZATION ( #261, #173 ) ;
#87 = PRODUCT_DEFINITION_FORMATION_WITH_SPECIFIED_SOURCE ( 'ANY', '', #33, .NOT_KNOWN. ) ;
#88 = DIRECTION ( 'NONE',  ( -3.491481338843133355E-15, 1.224646799147352961E-16, -1.000000000000000000 ) ) ;
#89 = DATE_AND_TIME ( #158, #146 ) ;
#90 = VERTEX_POINT ( 'NONE', #278 ) ;
#91 = VERTEX_POINT ( 'NONE', #280 ) ;
#92 = CIRCLE ( 'NONE', #3, 1.499999999999997558 ) ;
#93 = CONICAL_SURFACE ( 'NONE', #182, 1.200000000000003286, 0.7853981633974453924 ) ;
#94 = PERSON_AND_ORGANIZATION_ROLE ( 'creator' ) ;
#95 = EDGE_LOOP ( 'NONE', ( #290 ) ) ;
#96 = CC_DESIGN_DATE_AND_TIME_ASSIGNMENT ( #184, #233, ( #285 ) ) ;
#97 = PLANE ( 'NONE',  #112 ) ;
#98 = ORIENTED_EDGE ( 'NONE', *, *, #169, .T. ) ;
#99 = EDGE_CURVE ( 'NONE', #90, #90, #29, .T. ) ;
#100 = FACE_OUTER_BOUND ( 'NONE', #266, .T. ) ;
#101 = AXIS2_PLACEMENT_3D ( 'NONE', #24, #82, #199 ) ;
#102 = AXIS2_PLACEMENT_3D ( 'NONE', #209, #189, #289 ) ;
#103 = DIRECTION ( 'NONE',  ( -3.491481338843133355E-15, 1.224646799147352961E-16, -1.000000000000000000 ) ) ;
#104 = ADVANCED_FACE ( 'NONE', ( #210, #245 ), #54, .F. ) ;
#105 = DIRECTION ( 'NONE',  ( 4.275831445896958607E-31, 1.000000000000000000, 1.224646799147353207E-16 ) ) ;
#106 = PLANE ( 'NONE',  #70 ) ;
#107 = APPROVAL_STATUS ( 'not_yet_approved' ) ;
#108 = AXIS2_PLACEMENT_3D ( 'NONE', #109, #159, #130 ) ;
#109 = CARTESIAN_POINT ( 'NONE',  ( -4.219482667808703325E-31, 1.479995291884280824E-32, -1.208507867668221855E-16 ) ) ;
#110 = CARTESIAN_POINT ( 'NONE',  ( 6.322720941433207844E-14, 1.499999999999995559, 18.10899251011943534 ) ) ;
#111 = DIRECTION ( 'NONE',  ( -4.275831445896957731E-31, -1.000000000000000000, -1.224646799147352961E-16 ) ) ;
#112 = AXIS2_PLACEMENT_3D ( 'NONE', #237, #103, #288 ) ;
#113 = FACE_OUTER_BOUND ( 'NONE', #185, .T. ) ;
#114 = CALENDAR_DATE ( 2021, 29, 11 ) ;
#115 = ORIENTED_EDGE ( 'NONE', *, *, #99, .F. ) ;
#116 = AXIS2_PLACEMENT_3D ( 'NONE', #221, #192, #301 ) ;
#117 = EDGE_CURVE ( 'NONE', #63, #63, #151, .T. ) ;
#118 = PERSON_AND_ORGANIZATION_ROLE ( 'classification_officer' ) ;
#119 = ORIENTED_EDGE ( 'NONE', *, *, #55, .F. ) ;
#120 = ORIENTED_EDGE ( 'NONE', *, *, #11, .F. ) ;
#121 = DIRECTION ( 'NONE',  ( -3.491481338843133355E-15, 1.224646799147352961E-16, -1.000000000000000000 ) ) ;
#122 = AXIS2_PLACEMENT_3D ( 'NONE', #81, #174, #298 ) ;
#123 = ADVANCED_FACE ( 'NONE', ( #100, #165 ), #262, .T. ) ;
#124 = FACE_OUTER_BOUND ( 'NONE', #171, .T. ) ;
#125 = DESIGN_CONTEXT ( 'detailed design', #250, 'design' ) ;
#126 = CARTESIAN_POINT ( 'NONE',  ( 1.326762908760390423E-13, -4.653657836759941152E-15, 38.00000000000000000 ) ) ;
#127 = DIRECTION ( 'NONE',  ( 0.0000000000000000000, 1.000000000000000000, 0.0000000000000000000 ) ) ;
#128 = CC_DESIGN_APPROVAL ( #273, ( #87 ) ) ;
#129 = CARTESIAN_POINT ( 'NONE',  ( 2.094888803305880013E-14, -7.347880794884118750E-16, 6.000000000000000000 ) ) ;
#130 = DIRECTION ( 'NONE',  ( 4.275831445896957731E-31, 1.000000000000000000, 1.224646799147352961E-16 ) ) ;
#131 = DIRECTION ( 'NONE',  ( -3.491481338843133355E-15, 1.224646799147352961E-16, -1.000000000000000000 ) ) ;
#132 = AXIS2_PLACEMENT_3D ( 'NONE', #12, #265, #35 ) ;
#133 = VERTEX_POINT ( 'NONE', #21 ) ;
#134 = CYLINDRICAL_SURFACE ( 'NONE', #268, 0.6884999999999996678 ) ;
#135 = PERSON_AND_ORGANIZATION_ROLE ( 'creator' ) ;
#136 = APPROVAL_DATE_TIME ( #89, #252 ) ;
#137 = CARTESIAN_POINT ( 'NONE',  ( 1.326762908760390423E-13, -4.653657836759941152E-15, 38.00000000000000000 ) ) ;
#138 = APPROVAL_DATE_TIME ( #256, #162 ) ;
#139 = AXIS2_PLACEMENT_3D ( 'NONE', #195, #22, #160 ) ;
#140 = PERSON_AND_ORGANIZATION ( #261, #173 ) ;
#141 = CC_DESIGN_PERSON_AND_ORGANIZATION_ASSIGNMENT ( #230, #27, ( #33 ) ) ;
#142 = AXIS2_PLACEMENT_3D ( 'NONE', #52, #34, #148 ) ;
#143 = EDGE_LOOP ( 'NONE', ( #71 ) ) ;
#144 = MANIFOLD_SOLID_BREP ( 'Corps-Déplacer/Copier1[1]', #31 ) ;
#145 = CYLINDRICAL_SURFACE ( 'NONE', #264, 0.6299999999999996714 ) ;
#146 = LOCAL_TIME ( 15, 58, 45.00000000000000000, #84 ) ;
#147 = ORIENTED_EDGE ( 'NONE', *, *, #188, .F. ) ;
#148 = DIRECTION ( 'NONE',  ( 4.275831445896957731E-31, 1.000000000000000000, 1.224646799147353207E-16 ) ) ;
#149 = ADVANCED_FACE ( 'NONE', ( #124, #241 ), #177, .T. ) ;
#150 = CARTESIAN_POINT ( 'NONE',  ( 0.0000000000000000000, 0.0000000000000000000, 0.0000000000000000000 ) ) ;
#151 = CIRCLE ( 'NONE', #236, 0.6885000000000000009 ) ;
#152 = DIRECTION ( 'NONE',  ( -3.491481338843133355E-15, 1.224646799147352961E-16, -1.000000000000000000 ) ) ;
#153 = DIRECTION ( 'NONE',  ( -4.275831445896957731E-31, -1.000000000000000000, -1.224646799147352961E-16 ) ) ;
#154 = ADVANCED_FACE ( 'NONE', ( #36 ), #274, .F. ) ;
#155 = PLANE ( 'NONE',  #292 ) ;
#156 = AXIS2_PLACEMENT_3D ( 'NONE', #14, #167, #170 ) ;
#157 = VERTEX_POINT ( 'NONE', #251 ) ;
#158 = CALENDAR_DATE ( 2021, 29, 11 ) ;
#159 = DIRECTION ( 'NONE',  ( -3.491481338843133355E-15, 1.224646799147352961E-16, -1.000000000000000000 ) ) ;
#160 = DIRECTION ( 'NONE',  ( -5.594567739686965543E-31, -1.000000000000000000, -1.574730824234576005E-16 ) ) ;
#161 = APPROVAL_PERSON_ORGANIZATION ( #140, #252, #303 ) ;
#162 = APPROVAL ( #277, 'UNSPECIFIED' ) ;
#163 = AXIS2_PLACEMENT_3D ( 'NONE', #65, #67, #218 ) ;
#164 = EDGE_LOOP ( 'NONE', ( #51 ) ) ;
#165 = FACE_OUTER_BOUND ( 'NONE', #164, .T. ) ;
#166 = CIRCLE ( 'NONE', #205, 0.6885000000000000009 ) ;
#167 = DIRECTION ( 'NONE',  ( -3.491481338843133355E-15, 1.224646799147352961E-16, -1.000000000000000000 ) ) ;
#168 = SECURITY_CLASSIFICATION ( '', '', #246 ) ;
#169 = EDGE_CURVE ( 'NONE', #133, #133, #275, .T. ) ;
#170 = DIRECTION ( 'NONE',  ( 4.275831445896957731E-31, 1.000000000000000000, 1.224646799147352961E-16 ) ) ;
#171 = EDGE_LOOP ( 'NONE', ( #73 ) ) ;
#172 = EDGE_LOOP ( 'NONE', ( #78 ) ) ;
#173 = ORGANIZATION ( 'UNSPECIFIED', 'UNSPECIFIED', '' ) ;
#174 = DIRECTION ( 'NONE',  ( -3.491481338843133355E-15, 1.224646799147352961E-16, -1.000000000000000000 ) ) ;
#175 = CARTESIAN_POINT ( 'NONE',  ( 1.316288464743861212E-13, 1.499999999999998668, 37.69999999999999574 ) ) ;
#176 = CARTESIAN_POINT ( 'NONE',  ( 2.094888803305880013E-14, 5.162923051813432006E-33, 6.000000000000000000 ) ) ;
#177 = CONICAL_SURFACE ( 'NONE', #102, 0.6299999999999991163, 0.5235987755982943748 ) ;
#178 = VERTEX_POINT ( 'NONE', #175 ) ;
#179 = CARTESIAN_POINT ( 'NONE',  ( 2.094888803305880013E-14, 0.6884999999999992237, 6.000000000000000000 ) ) ;
#180 =( NAMED_UNIT ( * ) SI_UNIT ( $, .STERADIAN. ) SOLID_ANGLE_UNIT ( ) );
#181 = APPLICATION_CONTEXT ( 'configuration controlled 3d designs of mechanical parts and assemblies' ) ;
#182 = AXIS2_PLACEMENT_3D ( 'NONE', #137, #88, #43 ) ;
#183 = DIRECTION ( 'NONE',  ( 1.000000000000000000, 0.0000000000000000000, 0.0000000000000000000 ) ) ;
#184 = DATE_AND_TIME ( #279, #212 ) ;
#185 = EDGE_LOOP ( 'NONE', ( #2 ) ) ;
#186 = EDGE_LOOP ( 'NONE', ( #115 ) ) ;
#187 = ORIENTED_EDGE ( 'NONE', *, *, #46, .F. ) ;
#188 = EDGE_CURVE ( 'NONE', #157, #157, #15, .T. ) ;
#189 = DIRECTION ( 'NONE',  ( -3.491481338843133355E-15, 1.224646799147352961E-16, -1.000000000000000000 ) ) ;
#190 = CC_DESIGN_PERSON_AND_ORGANIZATION_ASSIGNMENT ( #86, #135, ( #87 ) ) ;
#191 = DIRECTION ( 'NONE',  ( -3.491481338843133355E-15, 1.224646799147352961E-16, -1.000000000000000000 ) ) ;
#192 = DIRECTION ( 'NONE',  ( -3.491481338843133355E-15, 1.224646799147352961E-16, -1.000000000000000000 ) ) ;
#193 = CC_DESIGN_SECURITY_CLASSIFICATION ( #168, ( #87 ) ) ;
#194 = PERSON_AND_ORGANIZATION_ROLE ( 'design_supplier' ) ;
#195 = CARTESIAN_POINT ( 'NONE',  ( 8.728703347107831416E-16, -3.061616997868381785E-17, 0.2499999999999999445 ) ) ;
#196 = FACE_OUTER_BOUND ( 'NONE', #284, .T. ) ;
#197 = ADVANCED_FACE ( 'NONE', ( #113, #249 ), #134, .T. ) ;
#198 = APPROVAL_ROLE ( '' ) ;
#199 = DIRECTION ( 'NONE',  ( 0.0000000000000000000, -1.000000000000000000, 0.0000000000000000000 ) ) ;
#200 = CC_DESIGN_APPROVAL ( #162, ( #168 ) ) ;
#201 = DIRECTION ( 'NONE',  ( 3.491481338843133355E-15, -1.224646799147352961E-16, 1.000000000000000000 ) ) ;
#202 = DIRECTION ( 'NONE',  ( 0.0000000000000000000, 0.0000000000000000000, 1.000000000000000000 ) ) ;
#203 = ADVANCED_FACE ( 'NONE', ( #271, #66 ), #231, .T. ) ;
#204 = ORIENTED_EDGE ( 'NONE', *, *, #11, .T. ) ;
#205 = AXIS2_PLACEMENT_3D ( 'NONE', #129, #59, #127 ) ;
#206 = EDGE_LOOP ( 'NONE', ( #187 ) ) ;
#207 = CC_DESIGN_APPROVAL ( #252, ( #285 ) ) ;
#208 = DIRECTION ( 'NONE',  ( 0.0000000000000000000, 1.000000000000000000, 0.0000000000000000000 ) ) ;
#209 = CARTESIAN_POINT ( 'NONE',  ( 2.130266228280327256E-14, -7.471968097814934922E-16, 6.101324972242782252 ) ) ;
#210 = FACE_OUTER_BOUND ( 'NONE', #49, .T. ) ;
#211 = CC_DESIGN_DATE_AND_TIME_ASSIGNMENT ( #9, #68, ( #168 ) ) ;
#212 = LOCAL_TIME ( 15, 58, 45.00000000000000000, #259 ) ;
#213 = CARTESIAN_POINT ( 'NONE',  ( 4.660183614865709118E-14, -1.634572375883072414E-15, 13.34729635533384595 ) ) ;
#214 = EDGE_LOOP ( 'NONE', ( #269 ) ) ;
#215 = ADVANCED_FACE ( 'NONE', ( #247, #216 ), #258, .T. ) ;
#216 = FACE_OUTER_BOUND ( 'NONE', #26, .T. ) ;
#217 = PERSON_AND_ORGANIZATION ( #261, #173 ) ;
#218 = DIRECTION ( 'NONE',  ( -4.275831445896957731E-31, -1.000000000000000000, -1.224646799147352961E-16 ) ) ;
#219 = CIRCLE ( 'NONE', #287, 0.6603844939755818544 ) ;
#220 = FACE_OUTER_BOUND ( 'NONE', #281, .T. ) ;
#221 = CARTESIAN_POINT ( 'NONE',  ( 8.728703347107831416E-16, -3.061616997868381785E-17, 0.2499999999999999445 ) ) ;
#222 = PERSON_AND_ORGANIZATION ( #261, #173 ) ;
#223 = VERTEX_POINT ( 'NONE', #179 ) ;
#224 = CIRCLE ( 'NONE', #108, 0.5441624327025947894 ) ;
#225 = SHAPE_DEFINITION_REPRESENTATION ( #283, #42 ) ;
#226 = APPROVAL_STATUS ( 'not_yet_approved' ) ;
#227 = PERSON_AND_ORGANIZATION ( #261, #173 ) ;
#228 =( LENGTH_UNIT ( ) NAMED_UNIT ( * ) SI_UNIT ( .MILLI., .METRE. ) );
#229 = EDGE_LOOP ( 'NONE', ( #204 ) ) ;
#230 = PERSON_AND_ORGANIZATION ( #261, #173 ) ;
#231 = CONICAL_SURFACE ( 'NONE', #101, 1.499999999999997558, 0.1745329251994259256 ) ;
#232 = ORIENTED_EDGE ( 'NONE', *, *, #117, .T. ) ;
#233 = DATE_TIME_ROLE ( 'creation_date' ) ;
#234 = ORIENTED_EDGE ( 'NONE', *, *, #239, .T. ) ;
#235 = ORIENTED_EDGE ( 'NONE', *, *, #239, .F. ) ;
#236 = AXIS2_PLACEMENT_3D ( 'NONE', #13, #121, #208 ) ;
#237 = CARTESIAN_POINT ( 'NONE',  ( 1.326762908760390423E-13, 8.998558695971099120E-33, 38.00000000000000000 ) ) ;
#238 = UNCERTAINTY_MEASURE_WITH_UNIT (LENGTH_MEASURE( 1.000000000000000082E-05 ), #228, 'distance_accuracy_value', 'NONE');
#239 = EDGE_CURVE ( 'NONE', #69, #69, #299, .T. ) ;
#240 = ORIENTED_EDGE ( 'NONE', *, *, #263, .T. ) ;
#241 = FACE_BOUND ( 'NONE', #143, .T. ) ;
#242 = MANIFOLD_SOLID_BREP ( 'Corps-Déplacer/Copier1[2]', #282 ) ;
#243 = APPROVAL_PERSON_ORGANIZATION ( #227, #162, #53 ) ;
#244 = DIRECTION ( 'NONE',  ( -3.491481338843133355E-15, 1.224646799147352961E-16, -1.000000000000000000 ) ) ;
#245 = FACE_OUTER_BOUND ( 'NONE', #17, .T. ) ;
#246 = SECURITY_CLASSIFICATION_LEVEL ( 'unclassified' ) ;
#247 = FACE_BOUND ( 'NONE', #95, .T. ) ;
#248 = ADVANCED_FACE ( 'NONE', ( #62 ), #155, .T. ) ;
#249 = FACE_OUTER_BOUND ( 'NONE', #214, .T. ) ;
#250 = APPLICATION_CONTEXT ( 'configuration controlled 3d designs of mechanical parts and assemblies' ) ;
#251 = CARTESIAN_POINT ( 'NONE',  ( 2.130266228280327256E-14, 0.6299999999999984501, 6.101324972242782252 ) ) ;
#252 = APPROVAL ( #226, 'UNSPECIFIED' ) ;
#253 = VERTEX_POINT ( 'NONE', #110 ) ;
#254 = APPLICATION_PROTOCOL_DEFINITION ( 'international standard', 'config_control_design', 1994, #250 ) ;
#255 = LOCAL_TIME ( 15, 58, 45.00000000000000000, #270 ) ;
#256 = DATE_AND_TIME ( #114, #32 ) ;
#257 =( NAMED_UNIT ( * ) PLANE_ANGLE_UNIT ( ) SI_UNIT ( $, .RADIAN. ) );
#258 = CONICAL_SURFACE ( 'NONE', #139, 0.6884999999999992237, 0.5235987755982925984 ) ;
#259 = COORDINATED_UNIVERSAL_TIME_OFFSET ( 1, 0, .AHEAD. ) ;
#260 = CC_DESIGN_PERSON_AND_ORGANIZATION_ASSIGNMENT ( #302, #118, ( #168 ) ) ;
#261 = PERSON ( 'UNSPECIFIED', 'UNSPECIFIED', 'UNSPECIFIED', ('UNSPECIFIED'), ('UNSPECIFIED'), ('UNSPECIFIED') ) ;
#262 = CYLINDRICAL_SURFACE ( 'NONE', #142, 1.500000000000000444 ) ;
#263 = EDGE_CURVE ( 'NONE', #91, #91, #224, .T. ) ;
#264 = AXIS2_PLACEMENT_3D ( 'NONE', #150, #152, #105 ) ;
#265 = DIRECTION ( 'NONE',  ( -3.491481338843133355E-15, 1.224646799147352961E-16, -1.000000000000000000 ) ) ;
#266 = EDGE_LOOP ( 'NONE', ( #120 ) ) ;
#267 = FACE_OUTER_BOUND ( 'NONE', #7, .T. ) ;
#268 = AXIS2_PLACEMENT_3D ( 'NONE', #39, #131, #20 ) ;
#269 = ORIENTED_EDGE ( 'NONE', *, *, #46, .T. ) ;
#270 = COORDINATED_UNIVERSAL_TIME_OFFSET ( 1, 0, .AHEAD. ) ;
#271 = FACE_BOUND ( 'NONE', #172, .T. ) ;
#272 = DIRECTION ( 'NONE',  ( -3.491481338843133355E-15, 1.224646799147352961E-16, -1.000000000000000000 ) ) ;
#273 = APPROVAL ( #107, 'UNSPECIFIED' ) ;
#274 = PLANE ( 'NONE',  #163 ) ;
#275 = CIRCLE ( 'NONE', #116, 0.6884999999999992237 ) ;
#276 = CARTESIAN_POINT ( 'NONE',  ( 4.660183614865709118E-14, 0.6603844939755803001, 13.34729635533384595 ) ) ;
#277 = APPROVAL_STATUS ( 'not_yet_approved' ) ;
#278 = CARTESIAN_POINT ( 'NONE',  ( 1.326762908760390423E-13, 1.199999999999998845, 38.00000000000000000 ) ) ;
#279 = CALENDAR_DATE ( 2021, 29, 11 ) ;
#280 = CARTESIAN_POINT ( 'NONE',  ( -1.892735826383161356E-31, 0.5441624327025947894, -5.421010862427522170E-17 ) ) ;
#281 = EDGE_LOOP ( 'NONE', ( #232 ) ) ;
#282 = CLOSED_SHELL ( 'NONE', ( #154, #215, #197, #248 ) ) ;
#283 = PRODUCT_DEFINITION_SHAPE ( 'NONE', 'NONE',  #285 ) ;
#284 = EDGE_LOOP ( 'NONE', ( #119 ) ) ;
#285 = PRODUCT_DEFINITION ( 'UNKNOWN', '', #87, #125 ) ;
#286 = ORIENTED_EDGE ( 'NONE', *, *, #99, .T. ) ;
#287 = AXIS2_PLACEMENT_3D ( 'NONE', #213, #191, #56 ) ;
#288 = DIRECTION ( 'NONE',  ( 4.275831445896957731E-31, 1.000000000000000000, 1.224646799147352961E-16 ) ) ;
#289 = DIRECTION ( 'NONE',  ( 0.0000000000000000000, 1.000000000000000000, 0.0000000000000000000 ) ) ;
#290 = ORIENTED_EDGE ( 'NONE', *, *, #263, .F. ) ;
#291 = DIRECTION ( 'NONE',  ( -3.491481338843133355E-15, 1.224646799147352961E-16, -1.000000000000000000 ) ) ;
#292 = AXIS2_PLACEMENT_3D ( 'NONE', #294, #296, #111 ) ;
#293 = DIRECTION ( 'NONE',  ( 0.0000000000000000000, 1.000000000000000000, 0.0000000000000000000 ) ) ;
#294 = CARTESIAN_POINT ( 'NONE',  ( 2.094888803305880013E-14, 5.162923051813432006E-33, 6.000000000000000000 ) ) ;
#295 = ADVANCED_FACE ( 'NONE', ( #196, #19 ), #93, .T. ) ;
#296 = DIRECTION ( 'NONE',  ( 3.491481338843133355E-15, -1.224646799147352961E-16, 1.000000000000000000 ) ) ;
#297 = CALENDAR_DATE ( 2021, 29, 11 ) ;
#298 = DIRECTION ( 'NONE',  ( 0.0000000000000000000, 1.000000000000000000, 0.0000000000000000000 ) ) ;
#299 = CIRCLE ( 'NONE', #122, 0.6300000000000002265 ) ;
#300 = ADVANCED_FACE ( 'NONE', ( #220 ), #106, .F. ) ;
#301 = DIRECTION ( 'NONE',  ( 5.594567739686965543E-31, 1.000000000000000000, 1.574730824234576005E-16 ) ) ;
#302 = PERSON_AND_ORGANIZATION ( #261, #173 ) ;
#303 = APPROVAL_ROLE ( '' ) ;
ENDSEC;
END-ISO-10303-21;
