ISO-10303-21;
HEADER;
FILE_DESCRIPTION (( 'STEP AP203' ),
    '1' );
FILE_NAME ('960487.step',
    '2021-10-13T12:57:32',
    ( '' ),
    ( '' ),
    'SwSTEP 2.0',
    'SolidWorks 2019',
    '' );
FILE_SCHEMA (( 'CONFIG_CONTROL_DESIGN' ));
ENDSEC;

DATA;
#1 = CC_DESIGN_PERSON_AND_ORGANIZATION_ASSIGNMENT ( #135, #107, ( #83 ) ) ;
#2 = CARTESIAN_POINT ( 'NONE',  ( 1.745740669421566678E-13, 1.099999999999994760, 50.00000000000000000 ) ) ;
#3 = VERTEX_POINT ( 'NONE', #81 ) ;
#4 = DIRECTION ( 'NONE',  ( 1.546832183442905183E-30, 1.000000000000000000, 4.327174794786742882E-16 ) ) ;
#5 = PERSON_AND_ORGANIZATION ( #208, #124 ) ;
#6 = CARTESIAN_POINT ( 'NONE',  ( 1.731774744066194397E-13, 1.499999999999994893, 49.60000000000000853 ) ) ;
#7 = PERSON_AND_ORGANIZATION ( #208, #124 ) ;
#8 = ADVANCED_FACE ( 'NONE', ( #136, #195 ), #238, .T. ) ;
#9 = CC_DESIGN_APPROVAL ( #97, ( #83 ) ) ;
#10 = CARTESIAN_POINT ( 'NONE',  ( 0.0000000000000000000, 0.0000000000000000000, 0.0000000000000000000 ) ) ;
#11 = DIRECTION ( 'NONE',  ( -5.135813185032677695E-31, -1.000000000000000000, -1.445602896647352968E-16 ) ) ;
#12 = DESIGN_CONTEXT ( 'detailed design', #248, 'design' ) ;
#13 = EDGE_LOOP ( 'NONE', ( #47 ) ) ;
#14 = ORIENTED_EDGE ( 'NONE', *, *, #159, .T. ) ;
#15 = DIRECTION ( 'NONE',  ( 0.0000000000000000000, -1.000000000000000000, 0.0000000000000000000 ) ) ;
#16 = EDGE_LOOP ( 'NONE', ( #28 ) ) ;
#17 = EDGE_LOOP ( 'NONE', ( #14 ) ) ;
#18 = EDGE_CURVE ( 'NONE', #146, #146, #79, .T. ) ;
#19 = ADVANCED_FACE ( 'NONE', ( #92, #174 ), #77, .T. ) ;
#20 = FACE_OUTER_BOUND ( 'NONE', #115, .T. ) ;
#21 = DATE_TIME_ROLE ( 'classification_date' ) ;
#22 = ADVANCED_FACE ( 'NONE', ( #242 ), #52, .T. ) ;
#23 = DATE_TIME_ROLE ( 'creation_date' ) ;
#24 = DIRECTION ( 'NONE',  ( -4.054589356604697056E-31, -1.000000000000000000, -1.141265444721580799E-16 ) ) ;
#25 = CALENDAR_DATE ( 2021, 13, 10 ) ;
#26 = DIRECTION ( 'NONE',  ( -3.491481338843133355E-15, 4.327174794786742882E-16, -1.000000000000000000 ) ) ;
#27 = EDGE_CURVE ( 'NONE', #122, #122, #49, .T. ) ;
#28 = ORIENTED_EDGE ( 'NONE', *, *, #27, .T. ) ;
#29 = CC_DESIGN_SECURITY_CLASSIFICATION ( #99, ( #83 ) ) ;
#30 = DIRECTION ( 'NONE',  ( -3.491481338843133355E-15, 1.224646799147353207E-16, -1.000000000000000000 ) ) ;
#31 = DIRECTION ( 'NONE',  ( 4.275831445896958607E-31, 1.000000000000000000, 1.224646799147353207E-16 ) ) ;
#32 = CARTESIAN_POINT ( 'NONE',  ( 1.731774744066194397E-13, -6.074248123770872657E-15, 49.60000000000000853 ) ) ;
#33 = CIRCLE ( 'NONE', #178, 1.100000000000000977 ) ;
#34 = DIRECTION ( 'NONE',  ( 1.510825004591027679E-30, 1.000000000000000000, 4.327174794786742882E-16 ) ) ;
#35 = ADVANCED_FACE ( 'NONE', ( #210 ), #109, .F. ) ;
#36 = ORIENTED_EDGE ( 'NONE', *, *, #100, .F. ) ;
#37 = COORDINATED_UNIVERSAL_TIME_OFFSET ( 1, 0, .AHEAD. ) ;
#38 = CC_DESIGN_PERSON_AND_ORGANIZATION_ASSIGNMENT ( #126, #45, ( #110 ) ) ;
#39 = CARTESIAN_POINT ( 'NONE',  ( 5.755455754662778354E-14, -7.133036283773769679E-15, 16.48428044175023288 ) ) ;
#40 = CALENDAR_DATE ( 2021, 13, 10 ) ;
#41 = FACE_OUTER_BOUND ( 'NONE', #157, .T. ) ;
#42 = DIRECTION ( 'NONE',  ( -3.491481338843133355E-15, 1.224646799147353207E-16, -1.000000000000000000 ) ) ;
#43 = AXIS2_PLACEMENT_3D ( 'NONE', #39, #222, #232 ) ;
#44 = CC_DESIGN_PERSON_AND_ORGANIZATION_ASSIGNMENT ( #5, #166, ( #83 ) ) ;
#45 = PERSON_AND_ORGANIZATION_ROLE ( 'creator' ) ;
#46 = DATE_AND_TIME ( #249, #118 ) ;
#47 = ORIENTED_EDGE ( 'NONE', *, *, #18, .F. ) ;
#48 = EDGE_LOOP ( 'NONE', ( #240 ) ) ;
#49 = CIRCLE ( 'NONE', #176, 1.500000000000000888 ) ;
#50 = AXIS2_PLACEMENT_3D ( 'NONE', #56, #108, #201 ) ;
#51 = DIRECTION ( 'NONE',  ( 0.0000000000000000000, 1.000000000000000000, 0.0000000000000000000 ) ) ;
#52 = PLANE ( 'NONE',  #72 ) ;
#53 = EDGE_CURVE ( 'NONE', #168, #168, #58, .T. ) ;
#54 = EDGE_LOOP ( 'NONE', ( #96 ) ) ;
#55 = CONICAL_SURFACE ( 'NONE', #50, 1.100000000000000977, 0.7853981633974512766 ) ;
#56 = CARTESIAN_POINT ( 'NONE',  ( 1.745740669421566678E-13, -6.123233995736766085E-15, 50.00000000000000000 ) ) ;
#57 = DIRECTION ( 'NONE',  ( 3.491481338843133355E-15, -4.327174794786742882E-16, 1.000000000000000000 ) ) ;
#58 = CIRCLE ( 'NONE', #203, 0.9500000000000022871 ) ;
#59 = AXIS2_PLACEMENT_3D ( 'NONE', #258, #193, #15 ) ;
#60 = FACE_BOUND ( 'NONE', #48, .T. ) ;
#61 = CARTESIAN_POINT ( 'NONE',  ( 4.992818314545680698E-14, -6.288372600415925717E-15, 14.30000000000000071 ) ) ;
#62 = DIRECTION ( 'NONE',  ( 3.491481338843133355E-15, -1.224646799147353207E-16, 1.000000000000000000 ) ) ;
#63 = CC_DESIGN_DATE_AND_TIME_ASSIGNMENT ( #169, #21, ( #99 ) ) ;
#64 = PERSON_AND_ORGANIZATION ( #208, #124 ) ;
#65 = FACE_OUTER_BOUND ( 'NONE', #192, .T. ) ;
#66 = EDGE_CURVE ( 'NONE', #103, #103, #33, .T. ) ;
#67 = DIRECTION ( 'NONE',  ( -3.491481338843133355E-15, 4.327174794786742882E-16, -1.000000000000000000 ) ) ;
#68 = COORDINATED_UNIVERSAL_TIME_OFFSET ( 1, 0, .AHEAD. ) ;
#69 = CLOSED_SHELL ( 'NONE', ( #19, #121, #35, #223, #151, #245, #247 ) ) ;
#70 = AXIS2_PLACEMENT_3D ( 'NONE', #125, #67, #129 ) ;
#71 = ORIENTED_EDGE ( 'NONE', *, *, #216, .F. ) ;
#72 = AXIS2_PLACEMENT_3D ( 'NONE', #98, #158, #114 ) ;
#73 = CIRCLE ( 'NONE', #59, 0.9500000000000022871 ) ;
#74 = DIRECTION ( 'NONE',  ( -3.491481338843133355E-15, 4.327174794786742882E-16, -1.000000000000000000 ) ) ;
#75 = ORIENTED_EDGE ( 'NONE', *, *, #18, .T. ) ;
#76 = DIRECTION ( 'NONE',  ( 0.0000000000000000000, 1.000000000000000000, 0.0000000000000000000 ) ) ;
#77 = CYLINDRICAL_SURFACE ( 'NONE', #137, 1.499999999999995337 ) ;
#78 = AXIS2_PLACEMENT_3D ( 'NONE', #199, #42, #24 ) ;
#79 = CIRCLE ( 'NONE', #117, 0.9500000000000043965 ) ;
#80 = AXIS2_PLACEMENT_3D ( 'NONE', #95, #57, #163 ) ;
#81 = CARTESIAN_POINT ( 'NONE',  ( 1.207255516793086791E-15, -0.9500000000000022871, 0.3457717225528974536 ) ) ;
#82 = DIRECTION ( 'NONE',  ( 1.000000000000000000, 0.0000000000000000000, 0.0000000000000000000 ) ) ;
#83 = PRODUCT_DEFINITION_FORMATION_WITH_SPECIFIED_SOURCE ( 'ANY', '', #215, .NOT_KNOWN. ) ;
#84 = VERTEX_POINT ( 'NONE', #202 ) ;
#85 = DATE_AND_TIME ( #25, #239 ) ;
#86 = CYLINDRICAL_SURFACE ( 'NONE', #246, 0.9500000000000022871 ) ;
#87 = PERSON_AND_ORGANIZATION_ROLE ( 'classification_officer' ) ;
#88 = TOROIDAL_SURFACE ( 'NONE', #226, 1.950000000000004396, 0.9999999999999997780 ) ;
#89 = EDGE_LOOP ( 'NONE', ( #257 ) ) ;
#90 = ADVANCED_FACE ( 'NONE', ( #171 ), #165, .T. ) ;
#91 = EDGE_LOOP ( 'NONE', ( #71 ) ) ;
#92 = FACE_OUTER_BOUND ( 'NONE', #17, .T. ) ;
#93 = ORIENTED_EDGE ( 'NONE', *, *, #53, .F. ) ;
#94 = APPROVAL_PERSON_ORGANIZATION ( #231, #184, #145 ) ;
#95 = CARTESIAN_POINT ( 'NONE',  ( 6.406975042174840860E-14, -7.940498093142551167E-15, 18.35030584553468103 ) ) ;
#96 = ORIENTED_EDGE ( 'NONE', *, *, #100, .T. ) ;
#97 = APPROVAL ( #104, 'UNSPECIFIED' ) ;
#98 = CARTESIAN_POINT ( 'NONE',  ( 4.329436860165485361E-14, 1.124819836996383216E-32, 12.40000000000000036 ) ) ;
#99 = SECURITY_CLASSIFICATION ( '', '', #133 ) ;
#100 = EDGE_CURVE ( 'NONE', #84, #84, #73, .T. ) ;
#101 = CARTESIAN_POINT ( 'NONE',  ( 5.755455754662778354E-14, -1.500000000000002442, 16.48428044175023288 ) ) ;
#102 = APPROVAL_ROLE ( '' ) ;
#103 = VERTEX_POINT ( 'NONE', #2 ) ;
#104 = APPROVAL_STATUS ( 'not_yet_approved' ) ;
#105 = AXIS2_PLACEMENT_3D ( 'NONE', #217, #260, #175 ) ;
#106 = APPROVAL_PERSON_ORGANIZATION ( #162, #97, #200 ) ;
#107 = PERSON_AND_ORGANIZATION_ROLE ( 'creator' ) ;
#108 = DIRECTION ( 'NONE',  ( -3.491481338843133355E-15, 1.224646799147353207E-16, -1.000000000000000000 ) ) ;
#109 = PLANE ( 'NONE',  #105 ) ;
#110 = PRODUCT_DEFINITION ( 'UNKNOWN', '', #83, #12 ) ;
#111 = LOCAL_TIME ( 14, 57, 32.00000000000000000, #229 ) ;
#112 = PRODUCT_DEFINITION_SHAPE ( 'NONE', 'NONE',  #110 ) ;
#113 = UNCERTAINTY_MEASURE_WITH_UNIT (LENGTH_MEASURE( 1.000000000000000082E-05 ), #144, 'distance_accuracy_value', 'NONE');
#114 = DIRECTION ( 'NONE',  ( -4.275831445896958607E-31, -1.000000000000000000, -1.224646799147353207E-16 ) ) ;
#115 = EDGE_LOOP ( 'NONE', ( #75 ) ) ;
#116 = CARTESIAN_POINT ( 'NONE',  ( 1.906192921252219839E-15, -6.686024735685277809E-17, 0.5459553513993053997 ) ) ;
#117 = AXIS2_PLACEMENT_3D ( 'NONE', #139, #213, #76 ) ;
#118 = LOCAL_TIME ( 14, 57, 32.00000000000000000, #253 ) ;
#119 = CARTESIAN_POINT ( 'NONE',  ( 0.0000000000000000000, 0.0000000000000000000, 0.0000000000000000000 ) ) ;
#120 =( GEOMETRIC_REPRESENTATION_CONTEXT ( 3 ) GLOBAL_UNCERTAINTY_ASSIGNED_CONTEXT ( ( #113 ) ) GLOBAL_UNIT_ASSIGNED_CONTEXT ( ( #144, #179, #127 ) ) REPRESENTATION_CONTEXT ( 'NONE', 'WORKASPACE' ) );
#121 = ADVANCED_FACE ( 'NONE', ( #155, #60 ), #55, .T. ) ;
#122 = VERTEX_POINT ( 'NONE', #6 ) ;
#123 = AXIS2_PLACEMENT_3D ( 'NONE', #119, #74, #34 ) ;
#124 = ORGANIZATION ( 'UNSPECIFIED', 'UNSPECIFIED', '' ) ;
#125 = CARTESIAN_POINT ( 'NONE',  ( 5.083184501156945174E-14, -6.299855481382881650E-15, 14.55881904510251879 ) ) ;
#126 = PERSON_AND_ORGANIZATION ( #208, #124 ) ;
#127 =( NAMED_UNIT ( * ) SI_UNIT ( $, .STERADIAN. ) SOLID_ANGLE_UNIT ( ) );
#128 = APPROVAL_DATE_TIME ( #167, #212 ) ;
#129 = DIRECTION ( 'NONE',  ( 0.0000000000000000000, 1.000000000000000000, 0.0000000000000000000 ) ) ;
#130 = APPROVAL_STATUS ( 'not_yet_approved' ) ;
#131 = LOCAL_TIME ( 14, 57, 32.00000000000000000, #37 ) ;
#132 = DIRECTION ( 'NONE',  ( 1.510825004591027679E-30, 1.000000000000000000, 4.327174794786742882E-16 ) ) ;
#133 = SECURITY_CLASSIFICATION_LEVEL ( 'unclassified' ) ;
#134 = MANIFOLD_SOLID_BREP ( 'Corps-Déplacer/Copier1[1]', #69 ) ;
#135 = PERSON_AND_ORGANIZATION ( #208, #124 ) ;
#136 = FACE_OUTER_BOUND ( 'NONE', #54, .T. ) ;
#137 = AXIS2_PLACEMENT_3D ( 'NONE', #10, #261, #31 ) ;
#138 = FACE_OUTER_BOUND ( 'NONE', #189, .T. ) ;
#139 = CARTESIAN_POINT ( 'NONE',  ( 4.992818314545680698E-14, -6.187859956545042795E-15, 14.30000000000000071 ) ) ;
#140 = ORIENTED_EDGE ( 'NONE', *, *, #190, .T. ) ;
#141 = ORIENTED_EDGE ( 'NONE', *, *, #216, .T. ) ;
#142 = CC_DESIGN_DATE_AND_TIME_ASSIGNMENT ( #46, #23, ( #110 ) ) ;
#143 = CARTESIAN_POINT ( 'NONE',  ( 0.0000000000000000000, 0.0000000000000000000, 0.0000000000000000000 ) ) ;
#144 =( LENGTH_UNIT ( ) NAMED_UNIT ( * ) SI_UNIT ( .MILLI., .METRE. ) );
#145 = APPROVAL_ROLE ( '' ) ;
#146 = VERTEX_POINT ( 'NONE', #183 ) ;
#147 = APPROVAL_DATE_TIME ( #85, #97 ) ;
#148 = CARTESIAN_POINT ( 'NONE',  ( 4.329436860165485361E-14, 1.124819836996383216E-32, 12.40000000000000036 ) ) ;
#149 = SHAPE_DEFINITION_REPRESENTATION ( #112, #152 ) ;
#150 = APPROVAL_PERSON_ORGANIZATION ( #180, #212, #102 ) ;
#151 = ADVANCED_FACE ( 'NONE', ( #234, #138 ), #225, .T. ) ;
#152 = ADVANCED_BREP_SHAPE_REPRESENTATION ( '960487', ( #134, #220, #194 ), #120 ) ;
#153 = DIRECTION ( 'NONE',  ( 0.0000000000000000000, 0.0000000000000000000, 1.000000000000000000 ) ) ;
#154 = ORIENTED_EDGE ( 'NONE', *, *, #66, .F. ) ;
#155 = FACE_OUTER_BOUND ( 'NONE', #89, .T. ) ;
#156 = DIRECTION ( 'NONE',  ( -3.491481338843133355E-15, 1.224646799147353207E-16, -1.000000000000000000 ) ) ;
#157 = EDGE_LOOP ( 'NONE', ( #93 ) ) ;
#158 = DIRECTION ( 'NONE',  ( 3.491481338843133355E-15, -1.224646799147353207E-16, 1.000000000000000000 ) ) ;
#159 = EDGE_CURVE ( 'NONE', #197, #197, #204, .T. ) ;
#160 = FACE_OUTER_BOUND ( 'NONE', #13, .T. ) ;
#161 = APPLICATION_CONTEXT ( 'configuration controlled 3d designs of mechanical parts and assemblies' ) ;
#162 = PERSON_AND_ORGANIZATION ( #208, #124 ) ;
#163 = DIRECTION ( 'NONE',  ( 0.0000000000000000000, -1.000000000000000000, 0.0000000000000000000 ) ) ;
#164 = PRODUCT_RELATED_PRODUCT_CATEGORY ( 'detail', '', ( #215 ) ) ;
#165 = CONICAL_SURFACE ( 'NONE', #187, 1.499999999999985789, 1.221730476396026610 ) ;
#166 = PERSON_AND_ORGANIZATION_ROLE ( 'design_supplier' ) ;
#167 = DATE_AND_TIME ( #40, #219 ) ;
#168 = VERTEX_POINT ( 'NONE', #177 ) ;
#169 = DATE_AND_TIME ( #227, #111 ) ;
#170 = ORIENTED_EDGE ( 'NONE', *, *, #159, .F. ) ;
#171 = FACE_OUTER_BOUND ( 'NONE', #237, .T. ) ;
#172 = ORIENTED_EDGE ( 'NONE', *, *, #190, .F. ) ;
#173 = CLOSED_SHELL ( 'NONE', ( #90, #8, #22 ) ) ;
#174 = FACE_OUTER_BOUND ( 'NONE', #16, .T. ) ;
#175 = DIRECTION ( 'NONE',  ( 4.275831445896958607E-31, 1.000000000000000000, 1.224646799147353207E-16 ) ) ;
#176 = AXIS2_PLACEMENT_3D ( 'NONE', #32, #191, #186 ) ;
#177 = CARTESIAN_POINT ( 'NONE',  ( 4.329436860165485361E-14, -0.9500000000000076161, 12.40000000000000036 ) ) ;
#178 = AXIS2_PLACEMENT_3D ( 'NONE', #243, #30, #51 ) ;
#179 =( NAMED_UNIT ( * ) PLANE_ANGLE_UNIT ( ) SI_UNIT ( $, .RADIAN. ) );
#180 = PERSON_AND_ORGANIZATION ( #208, #124 ) ;
#181 = DIRECTION ( 'NONE',  ( -3.491481338843133355E-15, 4.327174794786742882E-16, -1.000000000000000000 ) ) ;
#182 = CALENDAR_DATE ( 2021, 13, 10 ) ;
#183 = CARTESIAN_POINT ( 'NONE',  ( 4.992818314545680698E-14, 0.9499999999999982903, 14.30000000000000071 ) ) ;
#184 = APPROVAL ( #130, 'UNSPECIFIED' ) ;
#185 = MECHANICAL_CONTEXT ( 'NONE', #161, 'mechanical' ) ;
#186 = DIRECTION ( 'NONE',  ( 0.0000000000000000000, 1.000000000000000000, 0.0000000000000000000 ) ) ;
#187 = AXIS2_PLACEMENT_3D ( 'NONE', #116, #188, #11 ) ;
#188 = DIRECTION ( 'NONE',  ( 3.491481338843133355E-15, -1.224646799147353207E-16, 1.000000000000000000 ) ) ;
#189 = EDGE_LOOP ( 'NONE', ( #170 ) ) ;
#190 = EDGE_CURVE ( 'NONE', #228, #228, #198, .T. ) ;
#191 = DIRECTION ( 'NONE',  ( -3.491481338843133355E-15, 1.224646799147353207E-16, -1.000000000000000000 ) ) ;
#192 = EDGE_LOOP ( 'NONE', ( #236 ) ) ;
#193 = DIRECTION ( 'NONE',  ( -3.491481338843133355E-15, 1.224646799147353207E-16, -1.000000000000000000 ) ) ;
#194 = AXIS2_PLACEMENT_3D ( 'NONE', #235, #153, #82 ) ;
#195 = FACE_OUTER_BOUND ( 'NONE', #91, .T. ) ;
#196 = CIRCLE ( 'NONE', #78, 0.9500000000000022871 ) ;
#197 = VERTEX_POINT ( 'NONE', #101 ) ;
#198 = CIRCLE ( 'NONE', #70, 0.9840741737109359732 ) ;
#199 = CARTESIAN_POINT ( 'NONE',  ( 1.207255516793087185E-15, -4.234482332600726400E-17, 0.3457717225528975646 ) ) ;
#200 = APPROVAL_ROLE ( '' ) ;
#201 = DIRECTION ( 'NONE',  ( 0.0000000000000000000, 1.000000000000000000, 0.0000000000000000000 ) ) ;
#202 = CARTESIAN_POINT ( 'NONE',  ( 4.329436860165485361E-14, -0.9500000000000076161, 12.40000000000000036 ) ) ;
#203 = AXIS2_PLACEMENT_3D ( 'NONE', #262, #156, #241 ) ;
#204 = CIRCLE ( 'NONE', #43, 1.499999999999995337 ) ;
#205 = APPROVAL_DATE_TIME ( #209, #184 ) ;
#206 = DIRECTION ( 'NONE',  ( -4.275831445896958607E-31, -1.000000000000000000, -1.224646799147353207E-16 ) ) ;
#207 = APPLICATION_PROTOCOL_DEFINITION ( 'international standard', 'config_control_design', 1994, #248 ) ;
#208 = PERSON ( 'UNSPECIFIED', 'UNSPECIFIED', 'UNSPECIFIED', ('UNSPECIFIED'), ('UNSPECIFIED'), ('UNSPECIFIED') ) ;
#209 = DATE_AND_TIME ( #182, #131 ) ;
#210 = FACE_OUTER_BOUND ( 'NONE', #221, .T. ) ;
#211 = CC_DESIGN_APPROVAL ( #184, ( #110 ) ) ;
#212 = APPROVAL ( #254, 'UNSPECIFIED' ) ;
#213 = DIRECTION ( 'NONE',  ( -3.491481338843133355E-15, 4.327174794786742882E-16, -1.000000000000000000 ) ) ;
#214 = EDGE_LOOP ( 'NONE', ( #172 ) ) ;
#215 = PRODUCT ( '960487', '960487', '', ( #185 ) ) ;
#216 = EDGE_CURVE ( 'NONE', #3, #3, #196, .T. ) ;
#217 = CARTESIAN_POINT ( 'NONE',  ( 1.745740669421566678E-13, 8.248678804640133367E-33, 50.00000000000000000 ) ) ;
#218 = EDGE_LOOP ( 'NONE', ( #36 ) ) ;
#219 = LOCAL_TIME ( 14, 57, 32.00000000000000000, #68 ) ;
#220 = MANIFOLD_SOLID_BREP ( 'Corps-Déplacer/Copier1[2]', #173 ) ;
#221 = EDGE_LOOP ( 'NONE', ( #154 ) ) ;
#222 = DIRECTION ( 'NONE',  ( 3.491481338843133355E-15, -4.327174794786742882E-16, 1.000000000000000000 ) ) ;
#223 = ADVANCED_FACE ( 'NONE', ( #20, #41 ), #86, .T. ) ;
#224 = FACE_OUTER_BOUND ( 'NONE', #259, .T. ) ;
#225 = CONICAL_SURFACE ( 'NONE', #80, 1.999999999999999112, 0.2617993877991504625 ) ;
#226 = AXIS2_PLACEMENT_3D ( 'NONE', #61, #26, #4 ) ;
#227 = CALENDAR_DATE ( 2021, 13, 10 ) ;
#228 = VERTEX_POINT ( 'NONE', #252 ) ;
#229 = COORDINATED_UNIVERSAL_TIME_OFFSET ( 1, 0, .AHEAD. ) ;
#230 = PLANE ( 'NONE',  #244 ) ;
#231 = PERSON_AND_ORGANIZATION ( #208, #124 ) ;
#232 = DIRECTION ( 'NONE',  ( 0.0000000000000000000, -1.000000000000000000, 0.0000000000000000000 ) ) ;
#233 = PERSON_AND_ORGANIZATION_ROLE ( 'design_owner' ) ;
#234 = FACE_BOUND ( 'NONE', #214, .T. ) ;
#235 = CARTESIAN_POINT ( 'NONE',  ( 0.0000000000000000000, 0.0000000000000000000, 0.0000000000000000000 ) ) ;
#236 = ORIENTED_EDGE ( 'NONE', *, *, #53, .T. ) ;
#237 = EDGE_LOOP ( 'NONE', ( #141 ) ) ;
#238 = CYLINDRICAL_SURFACE ( 'NONE', #123, 0.9500000000000022871 ) ;
#239 = LOCAL_TIME ( 14, 57, 32.00000000000000000, #251 ) ;
#240 = ORIENTED_EDGE ( 'NONE', *, *, #66, .T. ) ;
#241 = DIRECTION ( 'NONE',  ( 0.0000000000000000000, -1.000000000000000000, 0.0000000000000000000 ) ) ;
#242 = FACE_OUTER_BOUND ( 'NONE', #218, .T. ) ;
#243 = CARTESIAN_POINT ( 'NONE',  ( 1.745740669421566678E-13, -6.123233995736766085E-15, 50.00000000000000000 ) ) ;
#244 = AXIS2_PLACEMENT_3D ( 'NONE', #148, #62, #206 ) ;
#245 = ADVANCED_FACE ( 'NONE', ( #160, #224 ), #88, .F. ) ;
#246 = AXIS2_PLACEMENT_3D ( 'NONE', #143, #181, #132 ) ;
#247 = ADVANCED_FACE ( 'NONE', ( #65 ), #230, .F. ) ;
#248 = APPLICATION_CONTEXT ( 'configuration controlled 3d designs of mechanical parts and assemblies' ) ;
#249 = CALENDAR_DATE ( 2021, 13, 10 ) ;
#250 = CC_DESIGN_APPROVAL ( #212, ( #99 ) ) ;
#251 = COORDINATED_UNIVERSAL_TIME_OFFSET ( 1, 0, .AHEAD. ) ;
#252 = CARTESIAN_POINT ( 'NONE',  ( 5.083184501156945174E-14, 0.9840741737109296450, 14.55881904510251879 ) ) ;
#253 = COORDINATED_UNIVERSAL_TIME_OFFSET ( 1, 0, .AHEAD. ) ;
#254 = APPROVAL_STATUS ( 'not_yet_approved' ) ;
#255 = APPLICATION_PROTOCOL_DEFINITION ( 'international standard', 'config_control_design', 1994, #161 ) ;
#256 = CC_DESIGN_PERSON_AND_ORGANIZATION_ASSIGNMENT ( #7, #233, ( #215 ) ) ;
#257 = ORIENTED_EDGE ( 'NONE', *, *, #27, .F. ) ;
#258 = CARTESIAN_POINT ( 'NONE',  ( 4.329436860165485361E-14, -5.365696745535561016E-15, 12.40000000000000036 ) ) ;
#259 = EDGE_LOOP ( 'NONE', ( #140 ) ) ;
#260 = DIRECTION ( 'NONE',  ( -3.491481338843133355E-15, 1.224646799147353207E-16, -1.000000000000000000 ) ) ;
#261 = DIRECTION ( 'NONE',  ( -3.491481338843133355E-15, 1.224646799147353207E-16, -1.000000000000000000 ) ) ;
#262 = CARTESIAN_POINT ( 'NONE',  ( 4.329436860165485361E-14, -5.365696745535561016E-15, 12.40000000000000036 ) ) ;
#263 = CC_DESIGN_PERSON_AND_ORGANIZATION_ASSIGNMENT ( #64, #87, ( #99 ) ) ;
ENDSEC;
END-ISO-10303-21;
