ISO-10303-21;
HEADER;
FILE_DESCRIPTION (( 'STEP AP203' ),
    '1' );
FILE_NAME ('960486.step',
    '2021-10-13T12:57:31',
    ( '' ),
    ( '' ),
    'SwSTEP 2.0',
    'SolidWorks 2019',
    '' );
FILE_SCHEMA (( 'CONFIG_CONTROL_DESIGN' ));
ENDSEC;

DATA;
#1 = DATE_TIME_ROLE ( 'classification_date' ) ;
#2 = ORIENTED_EDGE ( 'NONE', *, *, #186, .F. ) ;
#3 = AXIS2_PLACEMENT_3D ( 'NONE', #110, #231, #191 ) ;
#4 = ORIENTED_EDGE ( 'NONE', *, *, #237, .T. ) ;
#5 = LOCAL_TIME ( 14, 57, 31.00000000000000000, #106 ) ;
#6 = PLANE ( 'NONE',  #162 ) ;
#7 = AXIS2_PLACEMENT_3D ( 'NONE', #137, #173, #94 ) ;
#8 = FACE_OUTER_BOUND ( 'NONE', #187, .T. ) ;
#9 = FACE_OUTER_BOUND ( 'NONE', #35, .T. ) ;
#10 = AXIS2_PLACEMENT_3D ( 'NONE', #174, #249, #52 ) ;
#11 = EDGE_CURVE ( 'NONE', #238, #238, #95, .T. ) ;
#12 =( NAMED_UNIT ( * ) PLANE_ANGLE_UNIT ( ) SI_UNIT ( $, .RADIAN. ) );
#13 = ADVANCED_BREP_SHAPE_REPRESENTATION ( '960486', ( #70, #148, #182 ), #111 ) ;
#14 = DIRECTION ( 'NONE',  ( -3.491481338843133355E-15, 1.224646799147353207E-16, -1.000000000000000000 ) ) ;
#15 = CARTESIAN_POINT ( 'NONE',  ( 1.745740669421566678E-13, 1.099999999999994760, 50.00000000000000000 ) ) ;
#16 = FACE_OUTER_BOUND ( 'NONE', #130, .T. ) ;
#17 = AXIS2_PLACEMENT_3D ( 'NONE', #250, #55, #213 ) ;
#18 = EDGE_CURVE ( 'NONE', #42, #42, #49, .T. ) ;
#19 = PERSON_AND_ORGANIZATION_ROLE ( 'classification_officer' ) ;
#20 = PERSON_AND_ORGANIZATION ( #109, #158 ) ;
#21 = PRODUCT_DEFINITION_FORMATION_WITH_SPECIFIED_SOURCE ( 'ANY', '', #66, .NOT_KNOWN. ) ;
#22 = PRODUCT_DEFINITION_SHAPE ( 'NONE', 'NONE',  #163 ) ;
#23 = SHAPE_DEFINITION_REPRESENTATION ( #22, #13 ) ;
#24 = EDGE_LOOP ( 'NONE', ( #86 ) ) ;
#25 = CALENDAR_DATE ( 2021, 13, 10 ) ;
#26 = ORIENTED_EDGE ( 'NONE', *, *, #18, .F. ) ;
#27 = DATE_AND_TIME ( #145, #248 ) ;
#28 = CARTESIAN_POINT ( 'NONE',  ( 4.713499807438230030E-14, -5.854691731421723944E-15, 13.50000000000000000 ) ) ;
#29 = FACE_OUTER_BOUND ( 'NONE', #44, .T. ) ;
#30 = APPLICATION_CONTEXT ( 'configuration controlled 3d designs of mechanical parts and assemblies' ) ;
#31 = APPROVAL_PERSON_ORGANIZATION ( #67, #117, #166 ) ;
#32 = DIRECTION ( 'NONE',  ( -3.491481338843133355E-15, 1.224646799147353207E-16, -1.000000000000000000 ) ) ;
#33 = AXIS2_PLACEMENT_3D ( 'NONE', #233, #112, #53 ) ;
#34 = FACE_OUTER_BOUND ( 'NONE', #184, .T. ) ;
#35 = EDGE_LOOP ( 'NONE', ( #114 ) ) ;
#36 = CLOSED_SHELL ( 'NONE', ( #253, #207, #51 ) ) ;
#37 = CC_DESIGN_APPROVAL ( #117, ( #163 ) ) ;
#38 = DIRECTION ( 'NONE',  ( -3.491481338843133355E-15, 1.224646799147353207E-16, -1.000000000000000000 ) ) ;
#39 = CARTESIAN_POINT ( 'NONE',  ( 0.0000000000000000000, 0.0000000000000000000, 0.0000000000000000000 ) ) ;
#40 =( LENGTH_UNIT ( ) NAMED_UNIT ( * ) SI_UNIT ( .MILLI., .METRE. ) );
#41 = ADVANCED_FACE ( 'NONE', ( #152, #8 ), #229, .F. ) ;
#42 = VERTEX_POINT ( 'NONE', #138 ) ;
#43 = PRODUCT_RELATED_PRODUCT_CATEGORY ( 'detail', '', ( #66 ) ) ;
#44 = EDGE_LOOP ( 'NONE', ( #125 ) ) ;
#45 = APPLICATION_PROTOCOL_DEFINITION ( 'international standard', 'config_control_design', 1994, #178 ) ;
#46 = CC_DESIGN_SECURITY_CLASSIFICATION ( #217, ( #21 ) ) ;
#47 = EDGE_LOOP ( 'NONE', ( #251 ) ) ;
#48 = DATE_TIME_ROLE ( 'creation_date' ) ;
#49 = CIRCLE ( 'NONE', #81, 0.9000000000000021316 ) ;
#50 = CIRCLE ( 'NONE', #193, 1.500000000000000888 ) ;
#51 = ADVANCED_FACE ( 'NONE', ( #154 ), #6, .T. ) ;
#52 = DIRECTION ( 'NONE',  ( 0.0000000000000000000, 1.000000000000000000, 0.0000000000000000000 ) ) ;
#53 = DIRECTION ( 'NONE',  ( 1.510825004591027855E-30, 1.000000000000000000, 4.327174794786742882E-16 ) ) ;
#54 = DIRECTION ( 'NONE',  ( -3.491481338843133355E-15, 1.224646799147353207E-16, -1.000000000000000000 ) ) ;
#55 = DIRECTION ( 'NONE',  ( -3.491481338843133355E-15, 1.224646799147353207E-16, -1.000000000000000000 ) ) ;
#56 = CIRCLE ( 'NONE', #214, 0.9000000000000043521 ) ;
#57 = CARTESIAN_POINT ( 'NONE',  ( 4.803865994049495136E-14, -5.953681497799943324E-15, 13.75881904510252163 ) ) ;
#58 = UNCERTAINTY_MEASURE_WITH_UNIT (LENGTH_MEASURE( 1.000000000000000082E-05 ), #40, 'distance_accuracy_value', 'NONE');
#59 = LOCAL_TIME ( 14, 57, 31.00000000000000000, #259 ) ;
#60 = VERTEX_POINT ( 'NONE', #63 ) ;
#61 = DIRECTION ( 'NONE',  ( 1.510825004591027855E-30, 1.000000000000000000, 4.327174794786742882E-16 ) ) ;
#62 = DIRECTION ( 'NONE',  ( -5.135813185032677695E-31, -1.000000000000000000, -1.445602896647352968E-16 ) ) ;
#63 = CARTESIAN_POINT ( 'NONE',  ( 5.541289176306534693E-14, -1.500000000000002220, 15.87088298212868054 ) ) ;
#64 = APPROVAL ( #124, 'UNSPECIFIED' ) ;
#65 = APPROVAL_DATE_TIME ( #126, #64 ) ;
#66 = PRODUCT ( '960486', '960486', '', ( #101 ) ) ;
#67 = PERSON_AND_ORGANIZATION ( #109, #158 ) ;
#68 = AXIS2_PLACEMENT_3D ( 'NONE', #39, #14, #120 ) ;
#69 = APPROVAL_DATE_TIME ( #87, #117 ) ;
#70 = MANIFOLD_SOLID_BREP ( 'Corps-Déplacer/Copier1[1]', #206 ) ;
#71 = EDGE_CURVE ( 'NONE', #241, #241, #50, .T. ) ;
#72 = FACE_OUTER_BOUND ( 'NONE', #127, .T. ) ;
#73 = CC_DESIGN_PERSON_AND_ORGANIZATION_ASSIGNMENT ( #20, #165, ( #163 ) ) ;
#74 = FACE_BOUND ( 'NONE', #167, .T. ) ;
#75 = FACE_BOUND ( 'NONE', #164, .T. ) ;
#76 = CARTESIAN_POINT ( 'NONE',  ( 0.0000000000000000000, 0.0000000000000000000, 0.0000000000000000000 ) ) ;
#77 = DIRECTION ( 'NONE',  ( 3.491481338843133355E-15, -1.224646799147353207E-16, 1.000000000000000000 ) ) ;
#78 = VERTEX_POINT ( 'NONE', #256 ) ;
#79 = CC_DESIGN_DATE_AND_TIME_ASSIGNMENT ( #121, #1, ( #217 ) ) ;
#80 = APPLICATION_PROTOCOL_DEFINITION ( 'international standard', 'config_control_design', 1994, #30 ) ;
#81 = AXIS2_PLACEMENT_3D ( 'NONE', #215, #54, #108 ) ;
#82 = PERSON_AND_ORGANIZATION ( #109, #158 ) ;
#83 = ORIENTED_EDGE ( 'NONE', *, *, #219, .T. ) ;
#84 = ORIENTED_EDGE ( 'NONE', *, *, #11, .T. ) ;
#85 = ORIENTED_EDGE ( 'NONE', *, *, #11, .F. ) ;
#86 = ORIENTED_EDGE ( 'NONE', *, *, #18, .T. ) ;
#87 = DATE_AND_TIME ( #225, #5 ) ;
#88 = ORIENTED_EDGE ( 'NONE', *, *, #219, .F. ) ;
#89 = CONICAL_SURFACE ( 'NONE', #197, 1.100000000000000977, 0.7853981633974512766 ) ;
#90 = DIRECTION ( 'NONE',  ( 0.0000000000000000000, 1.000000000000000000, 0.0000000000000000000 ) ) ;
#91 = DIRECTION ( 'NONE',  ( -4.275831445896958607E-31, -1.000000000000000000, -1.224646799147353207E-16 ) ) ;
#92 = LOCAL_TIME ( 14, 57, 31.00000000000000000, #243 ) ;
#93 = FACE_OUTER_BOUND ( 'NONE', #261, .T. ) ;
#94 = DIRECTION ( 'NONE',  ( 4.275831445896958607E-31, 1.000000000000000000, 1.224646799147353207E-16 ) ) ;
#95 = CIRCLE ( 'NONE', #10, 1.100000000000000977 ) ;
#96 = CYLINDRICAL_SURFACE ( 'NONE', #113, 0.9000000000000021316 ) ;
#97 = VERTEX_POINT ( 'NONE', #139 ) ;
#98 = ADVANCED_FACE ( 'NONE', ( #9, #74 ), #89, .T. ) ;
#99 = CARTESIAN_POINT ( 'NONE',  ( 5.541289176306534693E-14, -6.867608481127708082E-15, 15.87088298212868054 ) ) ;
#100 = VERTEX_POINT ( 'NONE', #194 ) ;
#101 = MECHANICAL_CONTEXT ( 'NONE', #30, 'mechanical' ) ;
#102 = DIRECTION ( 'NONE',  ( 0.0000000000000000000, 0.0000000000000000000, 1.000000000000000000 ) ) ;
#103 = LOCAL_TIME ( 14, 57, 31.00000000000000000, #201 ) ;
#104 = APPROVAL_STATUS ( 'not_yet_approved' ) ;
#105 = COORDINATED_UNIVERSAL_TIME_OFFSET ( 1, 0, .AHEAD. ) ;
#106 = COORDINATED_UNIVERSAL_TIME_OFFSET ( 1, 0, .AHEAD. ) ;
#107 = PERSON_AND_ORGANIZATION_ROLE ( 'creator' ) ;
#108 = DIRECTION ( 'NONE',  ( -4.279844320860514387E-31, -1.000000000000000000, -1.204669080539446632E-16 ) ) ;
#109 = PERSON ( 'UNSPECIFIED', 'UNSPECIFIED', 'UNSPECIFIED', ('UNSPECIFIED'), ('UNSPECIFIED'), ('UNSPECIFIED') ) ;
#110 = CARTESIAN_POINT ( 'NONE',  ( 6.192808463818594675E-14, -7.675070290496487992E-15, 17.73690838591312513 ) ) ;
#111 =( GEOMETRIC_REPRESENTATION_CONTEXT ( 3 ) GLOBAL_UNCERTAINTY_ASSIGNED_CONTEXT ( ( #58 ) ) GLOBAL_UNIT_ASSIGNED_CONTEXT ( ( #40, #12, #140 ) ) REPRESENTATION_CONTEXT ( 'NONE', 'WORKASPACE' ) );
#112 = DIRECTION ( 'NONE',  ( -3.491481338843133355E-15, 4.327174794786742882E-16, -1.000000000000000000 ) ) ;
#113 = AXIS2_PLACEMENT_3D ( 'NONE', #76, #220, #61 ) ;
#114 = ORIENTED_EDGE ( 'NONE', *, *, #71, .F. ) ;
#115 = ADVANCED_FACE ( 'NONE', ( #212 ), #116, .F. ) ;
#116 = PLANE ( 'NONE',  #168 ) ;
#117 = APPROVAL ( #147, 'UNSPECIFIED' ) ;
#118 = CARTESIAN_POINT ( 'NONE',  ( 4.713499807438230030E-14, -5.841685972962102891E-15, 13.50000000000000000 ) ) ;
#119 = DESIGN_CONTEXT ( 'detailed design', #178, 'design' ) ;
#120 = DIRECTION ( 'NONE',  ( 4.275831445896958607E-31, 1.000000000000000000, 1.224646799147353207E-16 ) ) ;
#121 = DATE_AND_TIME ( #228, #59 ) ;
#122 = AXIS2_PLACEMENT_3D ( 'NONE', #255, #77, #62 ) ;
#123 = ADVANCED_FACE ( 'NONE', ( #72, #29 ), #149, .T. ) ;
#124 = APPROVAL_STATUS ( 'not_yet_approved' ) ;
#125 = ORIENTED_EDGE ( 'NONE', *, *, #254, .F. ) ;
#126 = DATE_AND_TIME ( #143, #92 ) ;
#127 = EDGE_LOOP ( 'NONE', ( #4 ) ) ;
#128 = SECURITY_CLASSIFICATION_LEVEL ( 'unclassified' ) ;
#129 = CC_DESIGN_PERSON_AND_ORGANIZATION_ASSIGNMENT ( #183, #221, ( #21 ) ) ;
#130 = EDGE_LOOP ( 'NONE', ( #83 ) ) ;
#131 = DIRECTION ( 'NONE',  ( -3.491481338843133355E-15, 4.327174794786742882E-16, -1.000000000000000000 ) ) ;
#132 = DIRECTION ( 'NONE',  ( 0.0000000000000000000, 1.000000000000000000, 0.0000000000000000000 ) ) ;
#133 = DIRECTION ( 'NONE',  ( 3.491481338843133355E-15, -1.224646799147353207E-16, 1.000000000000000000 ) ) ;
#134 = ORIENTED_EDGE ( 'NONE', *, *, #254, .T. ) ;
#135 = EDGE_CURVE ( 'NONE', #179, #179, #192, .T. ) ;
#136 = CONICAL_SURFACE ( 'NONE', #122, 1.499999999999985789, 1.221730476396026610 ) ;
#137 = CARTESIAN_POINT ( 'NONE',  ( 1.745740669421566678E-13, 8.248678804640133367E-33, 50.00000000000000000 ) ) ;
#138 = CARTESIAN_POINT ( 'NONE',  ( 1.143715752751345235E-15, -0.9000000000000021316, 0.3275732108395870701 ) ) ;
#139 = CARTESIAN_POINT ( 'NONE',  ( 4.713499807438230030E-14, 0.8999999999999984679, 13.50000000000000000 ) ) ;
#140 =( NAMED_UNIT ( * ) SI_UNIT ( $, .STERADIAN. ) SOLID_ANGLE_UNIT ( ) );
#141 = CYLINDRICAL_SURFACE ( 'NONE', #68, 1.499999999999995337 ) ;
#142 = FACE_OUTER_BOUND ( 'NONE', #24, .T. ) ;
#143 = CALENDAR_DATE ( 2021, 13, 10 ) ;
#144 = AXIS2_PLACEMENT_3D ( 'NONE', #157, #38, #156 ) ;
#145 = CALENDAR_DATE ( 2021, 13, 10 ) ;
#146 = CIRCLE ( 'NONE', #17, 0.9000000000000021316 ) ;
#147 = APPROVAL_STATUS ( 'not_yet_approved' ) ;
#148 = MANIFOLD_SOLID_BREP ( 'Corps-Déplacer/Copier1[2]', #36 ) ;
#149 = CYLINDRICAL_SURFACE ( 'NONE', #33, 0.9000000000000021316 ) ;
#150 = CARTESIAN_POINT ( 'NONE',  ( 1.745740669421566678E-13, -6.123233995736766085E-15, 50.00000000000000000 ) ) ;
#151 = FACE_OUTER_BOUND ( 'NONE', #47, .T. ) ;
#152 = FACE_OUTER_BOUND ( 'NONE', #202, .T. ) ;
#153 = ADVANCED_FACE ( 'NONE', ( #75, #234 ), #226, .T. ) ;
#154 = FACE_OUTER_BOUND ( 'NONE', #262, .T. ) ;
#155 = AXIS2_PLACEMENT_3D ( 'NONE', #99, #218, #196 ) ;
#156 = DIRECTION ( 'NONE',  ( 0.0000000000000000000, -1.000000000000000000, 0.0000000000000000000 ) ) ;
#157 = CARTESIAN_POINT ( 'NONE',  ( 4.085033166446465395E-14, -5.062794509900488699E-15, 11.69999999999999929 ) ) ;
#158 = ORGANIZATION ( 'UNSPECIFIED', 'UNSPECIFIED', '' ) ;
#159 = AXIS2_PLACEMENT_3D ( 'NONE', #57, #131, #132 ) ;
#160 = CARTESIAN_POINT ( 'NONE',  ( 0.0000000000000000000, 0.0000000000000000000, 0.0000000000000000000 ) ) ;
#161 = DIRECTION ( 'NONE',  ( 0.0000000000000000000, 1.000000000000000000, 0.0000000000000000000 ) ) ;
#162 = AXIS2_PLACEMENT_3D ( 'NONE', #190, #133, #91 ) ;
#163 = PRODUCT_DEFINITION ( 'UNKNOWN', '', #21, #119 ) ;
#164 = EDGE_LOOP ( 'NONE', ( #204 ) ) ;
#165 = PERSON_AND_ORGANIZATION_ROLE ( 'creator' ) ;
#166 = APPROVAL_ROLE ( '' ) ;
#167 = EDGE_LOOP ( 'NONE', ( #84 ) ) ;
#168 = AXIS2_PLACEMENT_3D ( 'NONE', #210, #252, #169 ) ;
#169 = DIRECTION ( 'NONE',  ( -4.275831445896958607E-31, -1.000000000000000000, -1.224646799147353207E-16 ) ) ;
#170 = ADVANCED_FACE ( 'NONE', ( #93 ), #176, .F. ) ;
#171 = APPROVAL_PERSON_ORGANIZATION ( #205, #263, #242 ) ;
#172 = CARTESIAN_POINT ( 'NONE',  ( 1.731774744066194397E-13, -6.074248123770872657E-15, 49.60000000000000853 ) ) ;
#173 = DIRECTION ( 'NONE',  ( -3.491481338843133355E-15, 1.224646799147353207E-16, -1.000000000000000000 ) ) ;
#174 = CARTESIAN_POINT ( 'NONE',  ( 1.745740669421566678E-13, -6.123233995736766085E-15, 50.00000000000000000 ) ) ;
#175 = CC_DESIGN_PERSON_AND_ORGANIZATION_ASSIGNMENT ( #260, #107, ( #21 ) ) ;
#176 = PLANE ( 'NONE',  #7 ) ;
#177 = CARTESIAN_POINT ( 'NONE',  ( 1.731774744066194397E-13, 1.499999999999994893, 49.60000000000000853 ) ) ;
#178 = APPLICATION_CONTEXT ( 'configuration controlled 3d designs of mechanical parts and assemblies' ) ;
#179 = VERTEX_POINT ( 'NONE', #258 ) ;
#180 = CC_DESIGN_PERSON_AND_ORGANIZATION_ASSIGNMENT ( #185, #19, ( #217 ) ) ;
#181 = APPROVAL_ROLE ( '' ) ;
#182 = AXIS2_PLACEMENT_3D ( 'NONE', #160, #102, #240 ) ;
#183 = PERSON_AND_ORGANIZATION ( #109, #158 ) ;
#184 = EDGE_LOOP ( 'NONE', ( #26 ) ) ;
#185 = PERSON_AND_ORGANIZATION ( #109, #158 ) ;
#186 = EDGE_CURVE ( 'NONE', #78, #78, #146, .T. ) ;
#187 = EDGE_LOOP ( 'NONE', ( #222 ) ) ;
#188 = DIRECTION ( 'NONE',  ( 1.547452996871385914E-30, 1.000000000000000000, 4.327174794786742882E-16 ) ) ;
#189 = CC_DESIGN_APPROVAL ( #64, ( #217 ) ) ;
#190 = CARTESIAN_POINT ( 'NONE',  ( 4.085033166446465395E-14, 1.124819836996383079E-32, 11.69999999999999929 ) ) ;
#191 = DIRECTION ( 'NONE',  ( 0.0000000000000000000, -1.000000000000000000, 0.0000000000000000000 ) ) ;
#192 = CIRCLE ( 'NONE', #159, 0.9340741737109361509 ) ;
#193 = AXIS2_PLACEMENT_3D ( 'NONE', #172, #32, #232 ) ;
#194 = CARTESIAN_POINT ( 'NONE',  ( 4.085033166446465395E-14, -0.9000000000000072387, 11.69999999999999929 ) ) ;
#195 = FACE_OUTER_BOUND ( 'NONE', #199, .T. ) ;
#196 = DIRECTION ( 'NONE',  ( 0.0000000000000000000, -1.000000000000000000, 0.0000000000000000000 ) ) ;
#197 = AXIS2_PLACEMENT_3D ( 'NONE', #150, #247, #90 ) ;
#198 = PERSON_AND_ORGANIZATION ( #109, #158 ) ;
#199 = EDGE_LOOP ( 'NONE', ( #227 ) ) ;
#200 = APPROVAL_PERSON_ORGANIZATION ( #198, #64, #181 ) ;
#201 = COORDINATED_UNIVERSAL_TIME_OFFSET ( 1, 0, .AHEAD. ) ;
#202 = EDGE_LOOP ( 'NONE', ( #208 ) ) ;
#203 = DATE_AND_TIME ( #25, #103 ) ;
#204 = ORIENTED_EDGE ( 'NONE', *, *, #135, .F. ) ;
#205 = PERSON_AND_ORGANIZATION ( #109, #158 ) ;
#206 = CLOSED_SHELL ( 'NONE', ( #209, #98, #170, #123, #153, #41, #115 ) ) ;
#207 = ADVANCED_FACE ( 'NONE', ( #151, #34 ), #96, .T. ) ;
#208 = ORIENTED_EDGE ( 'NONE', *, *, #237, .F. ) ;
#209 = ADVANCED_FACE ( 'NONE', ( #16, #195 ), #141, .T. ) ;
#210 = CARTESIAN_POINT ( 'NONE',  ( 4.085033166446465395E-14, 1.124819836996383079E-32, 11.69999999999999929 ) ) ;
#211 = DIRECTION ( 'NONE',  ( -3.491481338843133355E-15, 4.327174794786742882E-16, -1.000000000000000000 ) ) ;
#212 = FACE_OUTER_BOUND ( 'NONE', #235, .T. ) ;
#213 = DIRECTION ( 'NONE',  ( 0.0000000000000000000, -1.000000000000000000, 0.0000000000000000000 ) ) ;
#214 = AXIS2_PLACEMENT_3D ( 'NONE', #118, #239, #161 ) ;
#215 = CARTESIAN_POINT ( 'NONE',  ( 1.143715752751345630E-15, -4.011614841411214387E-17, 0.3275732108395871811 ) ) ;
#216 = AXIS2_PLACEMENT_3D ( 'NONE', #28, #211, #188 ) ;
#217 = SECURITY_CLASSIFICATION ( '', '', #128 ) ;
#218 = DIRECTION ( 'NONE',  ( 3.491481338843133355E-15, -4.327174794786742882E-16, 1.000000000000000000 ) ) ;
#219 = EDGE_CURVE ( 'NONE', #60, #60, #257, .T. ) ;
#220 = DIRECTION ( 'NONE',  ( -3.491481338843133355E-15, 4.327174794786742882E-16, -1.000000000000000000 ) ) ;
#221 = PERSON_AND_ORGANIZATION_ROLE ( 'design_supplier' ) ;
#222 = ORIENTED_EDGE ( 'NONE', *, *, #135, .T. ) ;
#223 = APPROVAL_DATE_TIME ( #203, #263 ) ;
#224 = CC_DESIGN_APPROVAL ( #263, ( #21 ) ) ;
#225 = CALENDAR_DATE ( 2021, 13, 10 ) ;
#226 = CONICAL_SURFACE ( 'NONE', #3, 1.999999999999998668, 0.2617993877991502960 ) ;
#227 = ORIENTED_EDGE ( 'NONE', *, *, #71, .T. ) ;
#228 = CALENDAR_DATE ( 2021, 13, 10 ) ;
#229 = TOROIDAL_SURFACE ( 'NONE', #216, 1.900000000000004352, 1.000000000000000000 ) ;
#230 = CC_DESIGN_DATE_AND_TIME_ASSIGNMENT ( #27, #48, ( #163 ) ) ;
#231 = DIRECTION ( 'NONE',  ( 3.491481338843133355E-15, -4.327174794786742882E-16, 1.000000000000000000 ) ) ;
#232 = DIRECTION ( 'NONE',  ( 0.0000000000000000000, 1.000000000000000000, 0.0000000000000000000 ) ) ;
#233 = CARTESIAN_POINT ( 'NONE',  ( 0.0000000000000000000, 0.0000000000000000000, 0.0000000000000000000 ) ) ;
#234 = FACE_OUTER_BOUND ( 'NONE', #246, .T. ) ;
#235 = EDGE_LOOP ( 'NONE', ( #134 ) ) ;
#236 = CIRCLE ( 'NONE', #144, 0.9000000000000021316 ) ;
#237 = EDGE_CURVE ( 'NONE', #97, #97, #56, .T. ) ;
#238 = VERTEX_POINT ( 'NONE', #15 ) ;
#239 = DIRECTION ( 'NONE',  ( -3.491481338843133355E-15, 4.327174794786742882E-16, -1.000000000000000000 ) ) ;
#240 = DIRECTION ( 'NONE',  ( 1.000000000000000000, 0.0000000000000000000, 0.0000000000000000000 ) ) ;
#241 = VERTEX_POINT ( 'NONE', #177 ) ;
#242 = APPROVAL_ROLE ( '' ) ;
#243 = COORDINATED_UNIVERSAL_TIME_OFFSET ( 1, 0, .AHEAD. ) ;
#244 = CC_DESIGN_PERSON_AND_ORGANIZATION_ASSIGNMENT ( #82, #245, ( #66 ) ) ;
#245 = PERSON_AND_ORGANIZATION_ROLE ( 'design_owner' ) ;
#246 = EDGE_LOOP ( 'NONE', ( #88 ) ) ;
#247 = DIRECTION ( 'NONE',  ( -3.491481338843133355E-15, 1.224646799147353207E-16, -1.000000000000000000 ) ) ;
#248 = LOCAL_TIME ( 14, 57, 31.00000000000000000, #105 ) ;
#249 = DIRECTION ( 'NONE',  ( -3.491481338843133355E-15, 1.224646799147353207E-16, -1.000000000000000000 ) ) ;
#250 = CARTESIAN_POINT ( 'NONE',  ( 4.085033166446465395E-14, -5.062794509900488699E-15, 11.69999999999999929 ) ) ;
#251 = ORIENTED_EDGE ( 'NONE', *, *, #186, .T. ) ;
#252 = DIRECTION ( 'NONE',  ( 3.491481338843133355E-15, -1.224646799147353207E-16, 1.000000000000000000 ) ) ;
#253 = ADVANCED_FACE ( 'NONE', ( #142 ), #136, .T. ) ;
#254 = EDGE_CURVE ( 'NONE', #100, #100, #236, .T. ) ;
#255 = CARTESIAN_POINT ( 'NONE',  ( 1.906192921252219839E-15, -6.686024735685277809E-17, 0.5459553513993053997 ) ) ;
#256 = CARTESIAN_POINT ( 'NONE',  ( 4.085033166446465395E-14, -0.9000000000000072387, 11.69999999999999929 ) ) ;
#257 = CIRCLE ( 'NONE', #155, 1.499999999999995337 ) ;
#258 = CARTESIAN_POINT ( 'NONE',  ( 4.803865994049495136E-14, 0.9340741737109301557, 13.75881904510252163 ) ) ;
#259 = COORDINATED_UNIVERSAL_TIME_OFFSET ( 1, 0, .AHEAD. ) ;
#260 = PERSON_AND_ORGANIZATION ( #109, #158 ) ;
#261 = EDGE_LOOP ( 'NONE', ( #85 ) ) ;
#262 = EDGE_LOOP ( 'NONE', ( #2 ) ) ;
#263 = APPROVAL ( #104, 'UNSPECIFIED' ) ;
ENDSEC;
END-ISO-10303-21;
