ISO-10303-21;
HEADER;
FILE_DESCRIPTION (( 'STEP AP203' ),
    '1' );
FILE_NAME ('960485.step',
    '2021-10-13T12:57:30',
    ( '' ),
    ( '' ),
    'SwSTEP 2.0',
    'SolidWorks 2019',
    '' );
FILE_SCHEMA (( 'CONFIG_CONTROL_DESIGN' ));
ENDSEC;

DATA;
#1 =( LENGTH_UNIT ( ) NAMED_UNIT ( * ) SI_UNIT ( .MILLI., .METRE. ) );
#2 = DATE_AND_TIME ( #123, #243 ) ;
#3 = CONICAL_SURFACE ( 'NONE', #54, 1.999999999999998224, 0.2617993877991502960 ) ;
#4 = APPLICATION_PROTOCOL_DEFINITION ( 'international standard', 'config_control_design', 1994, #257 ) ;
#5 = ORIENTED_EDGE ( 'NONE', *, *, #183, .T. ) ;
#6 = CALENDAR_DATE ( 2021, 13, 10 ) ;
#7 = CIRCLE ( 'NONE', #152, 0.8840741737109357734 ) ;
#8 = EDGE_LOOP ( 'NONE', ( #254 ) ) ;
#9 = ADVANCED_FACE ( 'NONE', ( #131, #132 ), #31, .T. ) ;
#10 = CARTESIAN_POINT ( 'NONE',  ( 6.013556698850784241E-14, -7.452914235798294770E-15, 17.22351092629157066 ) ) ;
#11 = ORIENTED_EDGE ( 'NONE', *, *, #116, .T. ) ;
#12 = CARTESIAN_POINT ( 'NONE',  ( 1.745740669421566678E-13, 8.248678804640133367E-33, 50.00000000000000000 ) ) ;
#13 = APPROVAL_PERSON_ORGANIZATION ( #41, #129, #208 ) ;
#14 = DIRECTION ( 'NONE',  ( -3.491481338843133355E-15, 4.327174794786742882E-16, -1.000000000000000000 ) ) ;
#15 = DIRECTION ( 'NONE',  ( 0.0000000000000000000, -1.000000000000000000, 0.0000000000000000000 ) ) ;
#16 = EDGE_CURVE ( 'NONE', #53, #53, #102, .T. ) ;
#17 =( NAMED_UNIT ( * ) PLANE_ANGLE_UNIT ( ) SI_UNIT ( $, .RADIAN. ) );
#18 = CARTESIAN_POINT ( 'NONE',  ( 3.875544286115878655E-14, -0.8500000000000067502, 11.09999999999999964 ) ) ;
#19 = VERTEX_POINT ( 'NONE', #90 ) ;
#20 = PERSON_AND_ORGANIZATION_ROLE ( 'classification_officer' ) ;
#21 = AXIS2_PLACEMENT_3D ( 'NONE', #130, #83, #149 ) ;
#22 = EDGE_CURVE ( 'NONE', #136, #136, #93, .T. ) ;
#23 = DATE_AND_TIME ( #104, #121 ) ;
#24 = ORIENTED_EDGE ( 'NONE', *, *, #40, .T. ) ;
#25 = CIRCLE ( 'NONE', #124, 1.100000000000000977 ) ;
#26 = PERSON_AND_ORGANIZATION ( #61, #36 ) ;
#27 = EDGE_LOOP ( 'NONE', ( #227 ) ) ;
#28 = SHAPE_DEFINITION_REPRESENTATION ( #127, #217 ) ;
#29 = PERSON_AND_ORGANIZATION_ROLE ( 'design_owner' ) ;
#30 = EDGE_LOOP ( 'NONE', ( #100 ) ) ;
#31 = CYLINDRICAL_SURFACE ( 'NONE', #103, 0.8500000000000019762 ) ;
#32 = FACE_OUTER_BOUND ( 'NONE', #30, .T. ) ;
#33 = CARTESIAN_POINT ( 'NONE',  ( 4.559462300330477695E-14, -5.650779262164872585E-15, 13.05881904510252589 ) ) ;
#34 = CARTESIAN_POINT ( 'NONE',  ( 1.745740669421566678E-13, -6.123233995736766085E-15, 50.00000000000000000 ) ) ;
#35 = FACE_BOUND ( 'NONE', #188, .T. ) ;
#36 = ORGANIZATION ( 'UNSPECIFIED', 'UNSPECIFIED', '' ) ;
#37 = CLOSED_SHELL ( 'NONE', ( #209, #94, #101, #9, #147, #156, #142 ) ) ;
#38 = DIRECTION ( 'NONE',  ( -4.275831445896958607E-31, -1.000000000000000000, -1.224646799147353207E-16 ) ) ;
#39 = PRODUCT_RELATED_PRODUCT_CATEGORY ( 'detail', '', ( #148 ) ) ;
#40 = EDGE_CURVE ( 'NONE', #240, #240, #51, .T. ) ;
#41 = PERSON_AND_ORGANIZATION ( #61, #36 ) ;
#42 = LOCAL_TIME ( 14, 57, 30.00000000000000000, #62 ) ;
#43 = EDGE_CURVE ( 'NONE', #56, #56, #137, .T. ) ;
#44 = AXIS2_PLACEMENT_3D ( 'NONE', #263, #157, #38 ) ;
#45 = DIRECTION ( 'NONE',  ( 1.548095593227181319E-30, 1.000000000000000000, 4.327174794786742882E-16 ) ) ;
#46 = DIRECTION ( 'NONE',  ( -4.531599869146426895E-31, -1.000000000000000000, -1.275531967630002287E-16 ) ) ;
#47 = FACE_OUTER_BOUND ( 'NONE', #185, .T. ) ;
#48 = CARTESIAN_POINT ( 'NONE',  ( 1.745740669421566678E-13, -6.123233995736766085E-15, 50.00000000000000000 ) ) ;
#49 = AXIS2_PLACEMENT_3D ( 'NONE', #232, #106, #45 ) ;
#50 = DIRECTION ( 'NONE',  ( -4.275831445896958607E-31, -1.000000000000000000, -1.224646799147353207E-16 ) ) ;
#51 = CIRCLE ( 'NONE', #206, 1.499999999999995115 ) ;
#52 = CARTESIAN_POINT ( 'NONE',  ( 0.0000000000000000000, 0.0000000000000000000, 0.0000000000000000000 ) ) ;
#53 = VERTEX_POINT ( 'NONE', #201 ) ;
#54 = AXIS2_PLACEMENT_3D ( 'NONE', #10, #111, #151 ) ;
#55 = DIRECTION ( 'NONE',  ( -3.491481338843133355E-15, 4.327174794786742882E-16, -1.000000000000000000 ) ) ;
#56 = VERTEX_POINT ( 'NONE', #134 ) ;
#57 = COORDINATED_UNIVERSAL_TIME_OFFSET ( 1, 0, .AHEAD. ) ;
#58 = ORIENTED_EDGE ( 'NONE', *, *, #22, .T. ) ;
#59 = DATE_TIME_ROLE ( 'creation_date' ) ;
#60 = DATE_AND_TIME ( #242, #107 ) ;
#61 = PERSON ( 'UNSPECIFIED', 'UNSPECIFIED', 'UNSPECIFIED', ('UNSPECIFIED'), ('UNSPECIFIED'), ('UNSPECIFIED') ) ;
#62 = COORDINATED_UNIVERSAL_TIME_OFFSET ( 1, 0, .AHEAD. ) ;
#63 = DIRECTION ( 'NONE',  ( 0.0000000000000000000, 0.0000000000000000000, 1.000000000000000000 ) ) ;
#64 = AXIS2_PLACEMENT_3D ( 'NONE', #80, #258, #46 ) ;
#65 = EDGE_LOOP ( 'NONE', ( #5 ) ) ;
#66 = FACE_OUTER_BOUND ( 'NONE', #27, .T. ) ;
#67 = DIRECTION ( 'NONE',  ( 0.0000000000000000000, 1.000000000000000000, 0.0000000000000000000 ) ) ;
#68 = PLANE ( 'NONE',  #190 ) ;
#69 = AXIS2_PLACEMENT_3D ( 'NONE', #230, #126, #153 ) ;
#70 = SECURITY_CLASSIFICATION ( '', '', #99 ) ;
#71 = CARTESIAN_POINT ( 'NONE',  ( 1.731774744066194397E-13, -6.074248123770872657E-15, 49.60000000000000853 ) ) ;
#72 = PERSON_AND_ORGANIZATION_ROLE ( 'design_supplier' ) ;
#73 = CALENDAR_DATE ( 2021, 13, 10 ) ;
#74 = APPROVAL_STATUS ( 'not_yet_approved' ) ;
#75 = CC_DESIGN_PERSON_AND_ORGANIZATION_ASSIGNMENT ( #187, #146, ( #186 ) ) ;
#76 = CC_DESIGN_APPROVAL ( #119, ( #70 ) ) ;
#77 = APPROVAL_STATUS ( 'not_yet_approved' ) ;
#78 = EDGE_LOOP ( 'NONE', ( #194 ) ) ;
#79 = AXIS2_PLACEMENT_3D ( 'NONE', #154, #211, #15 ) ;
#80 = CARTESIAN_POINT ( 'NONE',  ( 1.080175988709604272E-15, -3.788747350221702990E-17, 0.3093746991262767421 ) ) ;
#81 = DIRECTION ( 'NONE',  ( -3.491481338843133355E-15, 1.224646799147353207E-16, -1.000000000000000000 ) ) ;
#82 =( GEOMETRIC_REPRESENTATION_CONTEXT ( 3 ) GLOBAL_UNCERTAINTY_ASSIGNED_CONTEXT ( ( #109 ) ) GLOBAL_UNIT_ASSIGNED_CONTEXT ( ( #1, #17, #228 ) ) REPRESENTATION_CONTEXT ( 'NONE', 'WORKASPACE' ) );
#83 = DIRECTION ( 'NONE',  ( -3.491481338843133355E-15, 4.327174794786742882E-16, -1.000000000000000000 ) ) ;
#84 = FACE_OUTER_BOUND ( 'NONE', #120, .T. ) ;
#85 = EDGE_CURVE ( 'NONE', #91, #91, #7, .T. ) ;
#86 = CARTESIAN_POINT ( 'NONE',  ( 5.362037411338722366E-14, -6.645452426429515649E-15, 15.35748552250712784 ) ) ;
#87 = CC_DESIGN_APPROVAL ( #237, ( #89 ) ) ;
#88 = FACE_OUTER_BOUND ( 'NONE', #176, .T. ) ;
#89 = PRODUCT_DEFINITION ( 'UNKNOWN', '', #186, #216 ) ;
#90 = CARTESIAN_POINT ( 'NONE',  ( 1.745740669421566678E-13, 1.099999999999994760, 50.00000000000000000 ) ) ;
#91 = VERTEX_POINT ( 'NONE', #203 ) ;
#92 = VERTEX_POINT ( 'NONE', #261 ) ;
#93 = CIRCLE ( 'NONE', #21, 0.8500000000000039746 ) ;
#94 = ADVANCED_FACE ( 'NONE', ( #84, #108 ), #98, .T. ) ;
#95 = DATE_AND_TIME ( #6, #235 ) ;
#96 = CARTESIAN_POINT ( 'NONE',  ( 0.0000000000000000000, 0.0000000000000000000, 0.0000000000000000000 ) ) ;
#97 = EDGE_LOOP ( 'NONE', ( #223 ) ) ;
#98 = CONICAL_SURFACE ( 'NONE', #135, 1.100000000000000977, 0.7853981633974512766 ) ;
#99 = SECURITY_CLASSIFICATION_LEVEL ( 'unclassified' ) ;
#100 = ORIENTED_EDGE ( 'NONE', *, *, #22, .F. ) ;
#101 = ADVANCED_FACE ( 'NONE', ( #172 ), #68, .F. ) ;
#102 = CIRCLE ( 'NONE', #64, 0.8500000000000019762 ) ;
#103 = AXIS2_PLACEMENT_3D ( 'NONE', #199, #14, #252 ) ;
#104 = CALENDAR_DATE ( 2021, 13, 10 ) ;
#105 = DIRECTION ( 'NONE',  ( -3.491481338843133355E-15, 1.224646799147353207E-16, -1.000000000000000000 ) ) ;
#106 = DIRECTION ( 'NONE',  ( -3.491481338843133355E-15, 4.327174794786742882E-16, -1.000000000000000000 ) ) ;
#107 = LOCAL_TIME ( 14, 57, 30.00000000000000000, #207 ) ;
#108 = FACE_BOUND ( 'NONE', #244, .T. ) ;
#109 = UNCERTAINTY_MEASURE_WITH_UNIT (LENGTH_MEASURE( 1.000000000000000082E-05 ), #1, 'distance_accuracy_value', 'NONE');
#110 = FACE_OUTER_BOUND ( 'NONE', #65, .T. ) ;
#111 = DIRECTION ( 'NONE',  ( 3.491481338843133355E-15, -4.327174794786742882E-16, 1.000000000000000000 ) ) ;
#112 = CC_DESIGN_PERSON_AND_ORGANIZATION_ASSIGNMENT ( #143, #29, ( #148 ) ) ;
#113 = PLANE ( 'NONE',  #44 ) ;
#114 = CARTESIAN_POINT ( 'NONE',  ( 4.469096113719210695E-14, 0.8499999999999984235, 12.80000000000000071 ) ) ;
#115 = DIRECTION ( 'NONE',  ( 1.510825004591027855E-30, 1.000000000000000000, 4.327174794786743375E-16 ) ) ;
#116 = EDGE_CURVE ( 'NONE', #19, #19, #25, .T. ) ;
#117 = APPROVAL_STATUS ( 'not_yet_approved' ) ;
#118 = COORDINATED_UNIVERSAL_TIME_OFFSET ( 1, 0, .AHEAD. ) ;
#119 = APPROVAL ( #74, 'UNSPECIFIED' ) ;
#120 = EDGE_LOOP ( 'NONE', ( #144 ) ) ;
#121 = LOCAL_TIME ( 14, 57, 30.00000000000000000, #169 ) ;
#122 = DATE_TIME_ROLE ( 'classification_date' ) ;
#123 = CALENDAR_DATE ( 2021, 13, 10 ) ;
#124 = AXIS2_PLACEMENT_3D ( 'NONE', #34, #105, #128 ) ;
#125 = APPROVAL_PERSON_ORGANIZATION ( #191, #119, #165 ) ;
#126 = DIRECTION ( 'NONE',  ( -3.491481338843133355E-15, 1.224646799147353207E-16, -1.000000000000000000 ) ) ;
#127 = PRODUCT_DEFINITION_SHAPE ( 'NONE', 'NONE',  #89 ) ;
#128 = DIRECTION ( 'NONE',  ( 0.0000000000000000000, 1.000000000000000000, 0.0000000000000000000 ) ) ;
#129 = APPROVAL ( #117, 'UNSPECIFIED' ) ;
#130 = CARTESIAN_POINT ( 'NONE',  ( 4.469096113719210695E-14, -5.538783737327031362E-15, 12.80000000000000071 ) ) ;
#131 = FACE_OUTER_BOUND ( 'NONE', #212, .T. ) ;
#132 = FACE_OUTER_BOUND ( 'NONE', #251, .T. ) ;
#133 = CARTESIAN_POINT ( 'NONE',  ( 5.362037411338722366E-14, -1.500000000000001776, 15.35748552250712784 ) ) ;
#134 = CARTESIAN_POINT ( 'NONE',  ( 3.875544286115878655E-14, -0.8500000000000067502, 11.09999999999999964 ) ) ;
#135 = AXIS2_PLACEMENT_3D ( 'NONE', #48, #81, #67 ) ;
#136 = VERTEX_POINT ( 'NONE', #114 ) ;
#137 = CIRCLE ( 'NONE', #79, 0.8500000000000019762 ) ;
#138 = CARTESIAN_POINT ( 'NONE',  ( 0.0000000000000000000, 0.0000000000000000000, 0.0000000000000000000 ) ) ;
#139 = CC_DESIGN_SECURITY_CLASSIFICATION ( #70, ( #186 ) ) ;
#140 = APPROVAL_DATE_TIME ( #60, #119 ) ;
#141 = ORIENTED_EDGE ( 'NONE', *, *, #43, .F. ) ;
#142 = ADVANCED_FACE ( 'NONE', ( #110 ), #155, .F. ) ;
#143 = PERSON_AND_ORGANIZATION ( #61, #36 ) ;
#144 = ORIENTED_EDGE ( 'NONE', *, *, #218, .F. ) ;
#145 = ORIENTED_EDGE ( 'NONE', *, *, #116, .F. ) ;
#146 = PERSON_AND_ORGANIZATION_ROLE ( 'creator' ) ;
#147 = ADVANCED_FACE ( 'NONE', ( #35, #66 ), #3, .T. ) ;
#148 = PRODUCT ( '960485', '960485', '', ( #226 ) ) ;
#149 = DIRECTION ( 'NONE',  ( 0.0000000000000000000, 1.000000000000000000, 0.0000000000000000000 ) ) ;
#150 = AXIS2_PLACEMENT_3D ( 'NONE', #96, #63, #245 ) ;
#151 = DIRECTION ( 'NONE',  ( 0.0000000000000000000, -1.000000000000000000, 0.0000000000000000000 ) ) ;
#152 = AXIS2_PLACEMENT_3D ( 'NONE', #33, #200, #234 ) ;
#153 = DIRECTION ( 'NONE',  ( 0.0000000000000000000, -1.000000000000000000, 0.0000000000000000000 ) ) ;
#154 = CARTESIAN_POINT ( 'NONE',  ( 3.875544286115878655E-14, -4.803164022213284757E-15, 11.09999999999999964 ) ) ;
#155 = PLANE ( 'NONE',  #241 ) ;
#156 = ADVANCED_FACE ( 'NONE', ( #32, #171 ), #198, .F. ) ;
#157 = DIRECTION ( 'NONE',  ( 3.491481338843133355E-15, -1.224646799147353207E-16, 1.000000000000000000 ) ) ;
#158 = DIRECTION ( 'NONE',  ( 4.275831445896958607E-31, 1.000000000000000000, 1.224646799147353207E-16 ) ) ;
#159 = AXIS2_PLACEMENT_3D ( 'NONE', #138, #179, #158 ) ;
#160 = FACE_OUTER_BOUND ( 'NONE', #97, .T. ) ;
#161 = PERSON_AND_ORGANIZATION ( #61, #36 ) ;
#162 = ORIENTED_EDGE ( 'NONE', *, *, #218, .T. ) ;
#163 = APPROVAL_ROLE ( '' ) ;
#164 = MANIFOLD_SOLID_BREP ( 'Corps-Déplacer/Copier1[2]', #189 ) ;
#165 = APPROVAL_ROLE ( '' ) ;
#166 = ORIENTED_EDGE ( 'NONE', *, *, #183, .F. ) ;
#167 = PERSON_AND_ORGANIZATION_ROLE ( 'creator' ) ;
#168 = MANIFOLD_SOLID_BREP ( 'Corps-Déplacer/Copier1[1]', #37 ) ;
#169 = COORDINATED_UNIVERSAL_TIME_OFFSET ( 1, 0, .AHEAD. ) ;
#170 = ORIENTED_EDGE ( 'NONE', *, *, #16, .T. ) ;
#171 = FACE_OUTER_BOUND ( 'NONE', #78, .T. ) ;
#172 = FACE_OUTER_BOUND ( 'NONE', #175, .T. ) ;
#173 = CC_DESIGN_PERSON_AND_ORGANIZATION_ASSIGNMENT ( #161, #20, ( #70 ) ) ;
#174 = AXIS2_PLACEMENT_3D ( 'NONE', #52, #55, #115 ) ;
#175 = EDGE_LOOP ( 'NONE', ( #145 ) ) ;
#176 = EDGE_LOOP ( 'NONE', ( #162 ) ) ;
#177 = FACE_OUTER_BOUND ( 'NONE', #256, .T. ) ;
#178 = DIRECTION ( 'NONE',  ( 0.0000000000000000000, 1.000000000000000000, 0.0000000000000000000 ) ) ;
#179 = DIRECTION ( 'NONE',  ( -3.491481338843133355E-15, 1.224646799147353207E-16, -1.000000000000000000 ) ) ;
#180 = CC_DESIGN_PERSON_AND_ORGANIZATION_ASSIGNMENT ( #224, #167, ( #89 ) ) ;
#181 = CONICAL_SURFACE ( 'NONE', #213, 1.499999999999985789, 1.221730476396026610 ) ;
#182 = CYLINDRICAL_SURFACE ( 'NONE', #174, 0.8500000000000019762 ) ;
#183 = EDGE_CURVE ( 'NONE', #222, #222, #193, .T. ) ;
#184 = APPROVAL_DATE_TIME ( #23, #237 ) ;
#185 = EDGE_LOOP ( 'NONE', ( #141 ) ) ;
#186 = PRODUCT_DEFINITION_FORMATION_WITH_SPECIFIED_SOURCE ( 'ANY', '', #148, .NOT_KNOWN. ) ;
#187 = PERSON_AND_ORGANIZATION ( #61, #36 ) ;
#188 = EDGE_LOOP ( 'NONE', ( #248 ) ) ;
#189 = CLOSED_SHELL ( 'NONE', ( #229, #250, #192 ) ) ;
#190 = AXIS2_PLACEMENT_3D ( 'NONE', #12, #214, #197 ) ;
#191 = PERSON_AND_ORGANIZATION ( #61, #36 ) ;
#192 = ADVANCED_FACE ( 'NONE', ( #47 ), #113, .T. ) ;
#193 = CIRCLE ( 'NONE', #69, 0.8500000000000019762 ) ;
#194 = ORIENTED_EDGE ( 'NONE', *, *, #85, .T. ) ;
#195 = CC_DESIGN_DATE_AND_TIME_ASSIGNMENT ( #249, #59, ( #89 ) ) ;
#196 = CARTESIAN_POINT ( 'NONE',  ( 3.875544286115878655E-14, 1.124819836996383216E-32, 11.09999999999999964 ) ) ;
#197 = DIRECTION ( 'NONE',  ( 4.275831445896958607E-31, 1.000000000000000000, 1.224646799147353207E-16 ) ) ;
#198 = TOROIDAL_SURFACE ( 'NONE', #49, 1.850000000000004086, 1.000000000000000222 ) ;
#199 = CARTESIAN_POINT ( 'NONE',  ( 0.0000000000000000000, 0.0000000000000000000, 0.0000000000000000000 ) ) ;
#200 = DIRECTION ( 'NONE',  ( -3.491481338843133355E-15, 4.327174794786742882E-16, -1.000000000000000000 ) ) ;
#201 = CARTESIAN_POINT ( 'NONE',  ( 1.080175988709603877E-15, -0.8500000000000019762, 0.3093746991262766310 ) ) ;
#202 = DIRECTION ( 'NONE',  ( -5.135813185032677695E-31, -1.000000000000000000, -1.445602896647352968E-16 ) ) ;
#203 = CARTESIAN_POINT ( 'NONE',  ( 4.559462300330477695E-14, 0.8840741737109302223, 13.05881904510252589 ) ) ;
#204 = AXIS2_PLACEMENT_3D ( 'NONE', #71, #259, #178 ) ;
#205 = APPROVAL_DATE_TIME ( #2, #129 ) ;
#206 = AXIS2_PLACEMENT_3D ( 'NONE', #86, #215, #210 ) ;
#207 = COORDINATED_UNIVERSAL_TIME_OFFSET ( 1, 0, .AHEAD. ) ;
#208 = APPROVAL_ROLE ( '' ) ;
#209 = ADVANCED_FACE ( 'NONE', ( #219, #88 ), #221, .T. ) ;
#210 = DIRECTION ( 'NONE',  ( 0.0000000000000000000, -1.000000000000000000, 0.0000000000000000000 ) ) ;
#211 = DIRECTION ( 'NONE',  ( -3.491481338843133355E-15, 1.224646799147353207E-16, -1.000000000000000000 ) ) ;
#212 = EDGE_LOOP ( 'NONE', ( #58 ) ) ;
#213 = AXIS2_PLACEMENT_3D ( 'NONE', #260, #238, #202 ) ;
#214 = DIRECTION ( 'NONE',  ( -3.491481338843133355E-15, 1.224646799147353207E-16, -1.000000000000000000 ) ) ;
#215 = DIRECTION ( 'NONE',  ( 3.491481338843133355E-15, -4.327174794786742882E-16, 1.000000000000000000 ) ) ;
#216 = DESIGN_CONTEXT ( 'detailed design', #231, 'design' ) ;
#217 = ADVANCED_BREP_SHAPE_REPRESENTATION ( '960485', ( #168, #164, #150 ), #82 ) ;
#218 = EDGE_CURVE ( 'NONE', #92, #92, #239, .T. ) ;
#219 = FACE_OUTER_BOUND ( 'NONE', #246, .T. ) ;
#220 = FACE_OUTER_BOUND ( 'NONE', #8, .T. ) ;
#221 = CYLINDRICAL_SURFACE ( 'NONE', #159, 1.499999999999995115 ) ;
#222 = VERTEX_POINT ( 'NONE', #18 ) ;
#223 = ORIENTED_EDGE ( 'NONE', *, *, #16, .F. ) ;
#224 = PERSON_AND_ORGANIZATION ( #61, #36 ) ;
#225 = APPLICATION_PROTOCOL_DEFINITION ( 'international standard', 'config_control_design', 1994, #231 ) ;
#226 = MECHANICAL_CONTEXT ( 'NONE', #257, 'mechanical' ) ;
#227 = ORIENTED_EDGE ( 'NONE', *, *, #40, .F. ) ;
#228 =( NAMED_UNIT ( * ) SI_UNIT ( $, .STERADIAN. ) SOLID_ANGLE_UNIT ( ) );
#229 = ADVANCED_FACE ( 'NONE', ( #177 ), #181, .T. ) ;
#230 = CARTESIAN_POINT ( 'NONE',  ( 3.875544286115878655E-14, -4.803164022213284757E-15, 11.09999999999999964 ) ) ;
#231 = APPLICATION_CONTEXT ( 'configuration controlled 3d designs of mechanical parts and assemblies' ) ;
#232 = CARTESIAN_POINT ( 'NONE',  ( 4.469096113719211326E-14, -5.637851296924623057E-15, 12.80000000000000249 ) ) ;
#233 = CC_DESIGN_PERSON_AND_ORGANIZATION_ASSIGNMENT ( #247, #72, ( #186 ) ) ;
#234 = DIRECTION ( 'NONE',  ( 0.0000000000000000000, 1.000000000000000000, 0.0000000000000000000 ) ) ;
#235 = LOCAL_TIME ( 14, 57, 30.00000000000000000, #57 ) ;
#236 = DIRECTION ( 'NONE',  ( 3.491481338843133355E-15, -1.224646799147353207E-16, 1.000000000000000000 ) ) ;
#237 = APPROVAL ( #77, 'UNSPECIFIED' ) ;
#238 = DIRECTION ( 'NONE',  ( 3.491481338843133355E-15, -1.224646799147353207E-16, 1.000000000000000000 ) ) ;
#239 = CIRCLE ( 'NONE', #204, 1.500000000000000888 ) ;
#240 = VERTEX_POINT ( 'NONE', #133 ) ;
#241 = AXIS2_PLACEMENT_3D ( 'NONE', #196, #236, #50 ) ;
#242 = CALENDAR_DATE ( 2021, 13, 10 ) ;
#243 = LOCAL_TIME ( 14, 57, 30.00000000000000000, #118 ) ;
#244 = EDGE_LOOP ( 'NONE', ( #11 ) ) ;
#245 = DIRECTION ( 'NONE',  ( 1.000000000000000000, 0.0000000000000000000, 0.0000000000000000000 ) ) ;
#246 = EDGE_LOOP ( 'NONE', ( #24 ) ) ;
#247 = PERSON_AND_ORGANIZATION ( #61, #36 ) ;
#248 = ORIENTED_EDGE ( 'NONE', *, *, #85, .F. ) ;
#249 = DATE_AND_TIME ( #73, #42 ) ;
#250 = ADVANCED_FACE ( 'NONE', ( #220, #160 ), #182, .T. ) ;
#251 = EDGE_LOOP ( 'NONE', ( #166 ) ) ;
#252 = DIRECTION ( 'NONE',  ( 1.510825004591027855E-30, 1.000000000000000000, 4.327174794786743375E-16 ) ) ;
#253 = APPROVAL_PERSON_ORGANIZATION ( #26, #237, #163 ) ;
#254 = ORIENTED_EDGE ( 'NONE', *, *, #43, .T. ) ;
#255 = CC_DESIGN_DATE_AND_TIME_ASSIGNMENT ( #95, #122, ( #70 ) ) ;
#256 = EDGE_LOOP ( 'NONE', ( #170 ) ) ;
#257 = APPLICATION_CONTEXT ( 'configuration controlled 3d designs of mechanical parts and assemblies' ) ;
#258 = DIRECTION ( 'NONE',  ( -3.491481338843133355E-15, 1.224646799147353207E-16, -1.000000000000000000 ) ) ;
#259 = DIRECTION ( 'NONE',  ( -3.491481338843133355E-15, 1.224646799147353207E-16, -1.000000000000000000 ) ) ;
#260 = CARTESIAN_POINT ( 'NONE',  ( 1.906192921252219839E-15, -6.686024735685277809E-17, 0.5459553513993053997 ) ) ;
#261 = CARTESIAN_POINT ( 'NONE',  ( 1.731774744066194397E-13, 1.499999999999994893, 49.60000000000000853 ) ) ;
#262 = CC_DESIGN_APPROVAL ( #129, ( #186 ) ) ;
#263 = CARTESIAN_POINT ( 'NONE',  ( 3.875544286115878655E-14, 1.124819836996383216E-32, 11.09999999999999964 ) ) ;
ENDSEC;
END-ISO-10303-21;
