ISO-10303-21;
HEADER;
FILE_DESCRIPTION (( 'STEP AP203' ),
    '1' );
FILE_NAME ('960484.step',
    '2021-10-13T12:57:30',
    ( '' ),
    ( '' ),
    'SwSTEP 2.0',
    'SolidWorks 2019',
    '' );
FILE_SCHEMA (( 'CONFIG_CONTROL_DESIGN' ));
ENDSEC;

DATA;
#1 = CIRCLE ( 'NONE', #196, 0.8000000000000038192 ) ;
#2 = FACE_OUTER_BOUND ( 'NONE', #91, .T. ) ;
#3 = ADVANCED_FACE ( 'NONE', ( #8, #89 ), #250, .T. ) ;
#4 = CIRCLE ( 'NONE', #144, 0.8000000000000019318 ) ;
#5 = AXIS2_PLACEMENT_3D ( 'NONE', #155, #238, #153 ) ;
#6 = VERTEX_POINT ( 'NONE', #245 ) ;
#7 = CALENDAR_DATE ( 2021, 13, 10 ) ;
#8 = FACE_OUTER_BOUND ( 'NONE', #68, .T. ) ;
#9 = ORIENTED_EDGE ( 'NONE', *, *, #38, .T. ) ;
#10 = CALENDAR_DATE ( 2021, 13, 10 ) ;
#11 = CC_DESIGN_SECURITY_CLASSIFICATION ( #57, ( #106 ) ) ;
#12 = DIRECTION ( 'NONE',  ( -3.491481338843133355E-15, 1.224646799147353207E-16, -1.000000000000000000 ) ) ;
#13 = DIRECTION ( 'NONE',  ( -3.491481338843133355E-15, 1.224646799147353207E-16, -1.000000000000000000 ) ) ;
#14 = DIRECTION ( 'NONE',  ( -4.275831445896958607E-31, -1.000000000000000000, -1.224646799147353207E-16 ) ) ;
#15 = PLANE ( 'NONE',  #182 ) ;
#16 = EDGE_CURVE ( 'NONE', #99, #99, #75, .T. ) ;
#17 = DIRECTION ( 'NONE',  ( 0.0000000000000000000, 1.000000000000000000, 0.0000000000000000000 ) ) ;
#18 = CC_DESIGN_DATE_AND_TIME_ASSIGNMENT ( #233, #151, ( #57 ) ) ;
#19 = DIRECTION ( 'NONE',  ( -3.491481338843133355E-15, 1.224646799147353207E-16, -1.000000000000000000 ) ) ;
#20 = AXIS2_PLACEMENT_3D ( 'NONE', #158, #218, #194 ) ;
#21 = AXIS2_PLACEMENT_3D ( 'NONE', #55, #198, #17 ) ;
#22 = CARTESIAN_POINT ( 'NONE',  ( 4.189777606611760026E-14, 0.7999999999999986011, 12.00000000000000000 ) ) ;
#23 = CARTESIAN_POINT ( 'NONE',  ( 0.0000000000000000000, 0.0000000000000000000, 0.0000000000000000000 ) ) ;
#24 = DIRECTION ( 'NONE',  ( 3.491481338843133355E-15, -4.327174794786742882E-16, 1.000000000000000000 ) ) ;
#25 = COORDINATED_UNIVERSAL_TIME_OFFSET ( 1, 0, .AHEAD. ) ;
#26 = ORIENTED_EDGE ( 'NONE', *, *, #52, .F. ) ;
#27 = MANIFOLD_SOLID_BREP ( 'Corps-Déplacer/Copier1[1]', #105 ) ;
#28 = EDGE_LOOP ( 'NONE', ( #193 ) ) ;
#29 = CALENDAR_DATE ( 2021, 13, 10 ) ;
#30 = ORIENTED_EDGE ( 'NONE', *, *, #252, .T. ) ;
#31 = PERSON_AND_ORGANIZATION_ROLE ( 'classification_officer' ) ;
#32 = AXIS2_PLACEMENT_3D ( 'NONE', #117, #96, #121 ) ;
#33 = ADVANCED_FACE ( 'NONE', ( #37, #172 ), #239, .F. ) ;
#34 = DIRECTION ( 'NONE',  ( 1.510825004591027679E-30, 1.000000000000000000, 4.327174794786742882E-16 ) ) ;
#35 = ORIENTED_EDGE ( 'NONE', *, *, #38, .F. ) ;
#36 = CYLINDRICAL_SURFACE ( 'NONE', #32, 1.499999999999994893 ) ;
#37 = FACE_OUTER_BOUND ( 'NONE', #42, .T. ) ;
#38 = EDGE_CURVE ( 'NONE', #142, #142, #222, .T. ) ;
#39 = CONICAL_SURFACE ( 'NONE', #145, 1.999999999999998224, 0.2617993877991504625 ) ;
#40 = DIRECTION ( 'NONE',  ( 0.0000000000000000000, -1.000000000000000000, 0.0000000000000000000 ) ) ;
#41 = DIRECTION ( 'NONE',  ( -3.491481338843133355E-15, 1.224646799147353207E-16, -1.000000000000000000 ) ) ;
#42 = EDGE_LOOP ( 'NONE', ( #152 ) ) ;
#43 = CARTESIAN_POINT ( 'NONE',  ( 3.631140592396858689E-14, -0.8000000000000064837, 10.40000000000000036 ) ) ;
#44 = PERSON_AND_ORGANIZATION ( #256, #67 ) ;
#45 = VERTEX_POINT ( 'NONE', #204 ) ;
#46 = CC_DESIGN_PERSON_AND_ORGANIZATION_ASSIGNMENT ( #93, #187, ( #106 ) ) ;
#47 = VERTEX_POINT ( 'NONE', #22 ) ;
#48 = ORIENTED_EDGE ( 'NONE', *, *, #201, .T. ) ;
#49 = APPROVAL_DATE_TIME ( #87, #139 ) ;
#50 = EDGE_LOOP ( 'NONE', ( #111 ) ) ;
#51 = COORDINATED_UNIVERSAL_TIME_OFFSET ( 1, 0, .AHEAD. ) ;
#52 = EDGE_CURVE ( 'NONE', #83, #83, #259, .T. ) ;
#53 = CLOSED_SHELL ( 'NONE', ( #125, #247, #215 ) ) ;
#54 = EDGE_LOOP ( 'NONE', ( #9 ) ) ;
#55 = CARTESIAN_POINT ( 'NONE',  ( 1.745740669421566678E-13, -6.123233995736766085E-15, 50.00000000000000000 ) ) ;
#56 = ORIENTED_EDGE ( 'NONE', *, *, #80, .T. ) ;
#57 = SECURITY_CLASSIFICATION ( '', '', #230 ) ;
#58 = FACE_OUTER_BOUND ( 'NONE', #116, .T. ) ;
#59 = DIRECTION ( 'NONE',  ( 0.0000000000000000000, 1.000000000000000000, 0.0000000000000000000 ) ) ;
#60 = CARTESIAN_POINT ( 'NONE',  ( 5.147870832982476181E-14, -6.380024623783451685E-15, 14.74408806288556661 ) ) ;
#61 = APPROVAL_PERSON_ORGANIZATION ( #71, #206, #229 ) ;
#62 = CARTESIAN_POINT ( 'NONE',  ( 0.0000000000000000000, 0.0000000000000000000, 0.0000000000000000000 ) ) ;
#63 = CARTESIAN_POINT ( 'NONE',  ( 1.016636224667862519E-15, -0.8000000000000019318, 0.2911761874129662475 ) ) ;
#64 = CC_DESIGN_PERSON_AND_ORGANIZATION_ASSIGNMENT ( #69, #112, ( #110 ) ) ;
#65 = DIRECTION ( 'NONE',  ( -3.491481338843133355E-15, 4.327174794786742882E-16, -1.000000000000000000 ) ) ;
#66 = FACE_OUTER_BOUND ( 'NONE', #122, .T. ) ;
#67 = ORGANIZATION ( 'UNSPECIFIED', 'UNSPECIFIED', '' ) ;
#68 = EDGE_LOOP ( 'NONE', ( #48 ) ) ;
#69 = PERSON_AND_ORGANIZATION ( #256, #67 ) ;
#70 = AXIS2_PLACEMENT_3D ( 'NONE', #223, #65, #163 ) ;
#71 = PERSON_AND_ORGANIZATION ( #256, #67 ) ;
#72 = DIRECTION ( 'NONE',  ( 1.548761139452827204E-30, 1.000000000000000000, 4.327174794786743375E-16 ) ) ;
#73 = EDGE_LOOP ( 'NONE', ( #56 ) ) ;
#74 = FACE_OUTER_BOUND ( 'NONE', #73, .T. ) ;
#75 = CIRCLE ( 'NONE', #195, 0.8000000000000019318 ) ;
#76 = CARTESIAN_POINT ( 'NONE',  ( 1.745740669421566678E-13, 8.248678804640133367E-33, 50.00000000000000000 ) ) ;
#77 = FACE_OUTER_BOUND ( 'NONE', #28, .T. ) ;
#78 = CARTESIAN_POINT ( 'NONE',  ( 4.280143793223025133E-14, -5.304605278581931892E-15, 12.25881904510252163 ) ) ;
#79 = AXIS2_PLACEMENT_3D ( 'NONE', #60, #137, #40 ) ;
#80 = EDGE_CURVE ( 'NONE', #181, #181, #4, .T. ) ;
#81 = CARTESIAN_POINT ( 'NONE',  ( 3.631140592396858689E-14, -0.8000000000000064837, 10.40000000000000036 ) ) ;
#82 = PRODUCT_RELATED_PRODUCT_CATEGORY ( 'detail', '', ( #177 ) ) ;
#83 = VERTEX_POINT ( 'NONE', #81 ) ;
#84 = AXIS2_PLACEMENT_3D ( 'NONE', #212, #237, #72 ) ;
#85 = CIRCLE ( 'NONE', #140, 1.500000000000000888 ) ;
#86 = DIRECTION ( 'NONE',  ( 0.0000000000000000000, 1.000000000000000000, 0.0000000000000000000 ) ) ;
#87 = DATE_AND_TIME ( #243, #248 ) ;
#88 = LOCAL_TIME ( 14, 57, 30.00000000000000000, #51 ) ;
#89 = FACE_OUTER_BOUND ( 'NONE', #173, .T. ) ;
#90 = DATE_AND_TIME ( #29, #183 ) ;
#91 = EDGE_LOOP ( 'NONE', ( #167 ) ) ;
#92 = ADVANCED_FACE ( 'NONE', ( #118 ), #219, .F. ) ;
#93 = PERSON_AND_ORGANIZATION ( #256, #67 ) ;
#94 = CARTESIAN_POINT ( 'NONE',  ( 3.631140592396858689E-14, 1.124819836996383079E-32, 10.40000000000000036 ) ) ;
#95 = DIRECTION ( 'NONE',  ( 4.275831445896958607E-31, 1.000000000000000000, 1.224646799147353207E-16 ) ) ;
#96 = DIRECTION ( 'NONE',  ( -3.491481338843133355E-15, 1.224646799147353207E-16, -1.000000000000000000 ) ) ;
#97 = DIRECTION ( 'NONE',  ( 3.491481338843133355E-15, -1.224646799147353207E-16, 1.000000000000000000 ) ) ;
#98 = CARTESIAN_POINT ( 'NONE',  ( 3.631140592396858689E-14, 1.124819836996383079E-32, 10.40000000000000036 ) ) ;
#99 = VERTEX_POINT ( 'NONE', #63 ) ;
#100 = LOCAL_TIME ( 14, 57, 30.00000000000000000, #25 ) ;
#101 =( NAMED_UNIT ( * ) PLANE_ANGLE_UNIT ( ) SI_UNIT ( $, .RADIAN. ) );
#102 = APPROVAL_ROLE ( '' ) ;
#103 = CARTESIAN_POINT ( 'NONE',  ( 1.745740669421566678E-13, 1.099999999999994760, 50.00000000000000000 ) ) ;
#104 = PRODUCT_DEFINITION_SHAPE ( 'NONE', 'NONE',  #110 ) ;
#105 = CLOSED_SHELL ( 'NONE', ( #232, #207, #92, #3, #244, #33, #114 ) ) ;
#106 = PRODUCT_DEFINITION_FORMATION_WITH_SPECIFIED_SOURCE ( 'ANY', '', #177, .NOT_KNOWN. ) ;
#107 = DIRECTION ( 'NONE',  ( 0.0000000000000000000, -1.000000000000000000, 0.0000000000000000000 ) ) ;
#108 = COORDINATED_UNIVERSAL_TIME_OFFSET ( 1, 0, .AHEAD. ) ;
#109 = COORDINATED_UNIVERSAL_TIME_OFFSET ( 1, 0, .AHEAD. ) ;
#110 = PRODUCT_DEFINITION ( 'UNKNOWN', '', #106, #253 ) ;
#111 = ORIENTED_EDGE ( 'NONE', *, *, #154, .F. ) ;
#112 = PERSON_AND_ORGANIZATION_ROLE ( 'creator' ) ;
#113 = DATE_AND_TIME ( #10, #203 ) ;
#114 = ADVANCED_FACE ( 'NONE', ( #74 ), #15, .F. ) ;
#115 = CIRCLE ( 'NONE', #79, 1.499999999999994893 ) ;
#116 = EDGE_LOOP ( 'NONE', ( #30 ) ) ;
#117 = CARTESIAN_POINT ( 'NONE',  ( 0.0000000000000000000, 0.0000000000000000000, 0.0000000000000000000 ) ) ;
#118 = FACE_OUTER_BOUND ( 'NONE', #129, .T. ) ;
#119 = AXIS2_PLACEMENT_3D ( 'NONE', #98, #159, #14 ) ;
#120 = FACE_OUTER_BOUND ( 'NONE', #135, .T. ) ;
#121 = DIRECTION ( 'NONE',  ( 4.275831445896958607E-31, 1.000000000000000000, 1.224646799147353207E-16 ) ) ;
#122 = EDGE_LOOP ( 'NONE', ( #188 ) ) ;
#123 = APPROVAL_STATUS ( 'not_yet_approved' ) ;
#124 =( LENGTH_UNIT ( ) NAMED_UNIT ( * ) SI_UNIT ( .MILLI., .METRE. ) );
#125 = ADVANCED_FACE ( 'NONE', ( #77 ), #190, .T. ) ;
#126 = MECHANICAL_CONTEXT ( 'NONE', #178, 'mechanical' ) ;
#127 = APPROVAL_PERSON_ORGANIZATION ( #44, #139, #102 ) ;
#128 = APPROVAL_DATE_TIME ( #186, #206 ) ;
#129 = EDGE_LOOP ( 'NONE', ( #35 ) ) ;
#130 = PERSON_AND_ORGANIZATION_ROLE ( 'design_supplier' ) ;
#131 = CC_DESIGN_APPROVAL ( #206, ( #57 ) ) ;
#132 = SHAPE_DEFINITION_REPRESENTATION ( #104, #191 ) ;
#133 = ORIENTED_EDGE ( 'NONE', *, *, #154, .T. ) ;
#134 = PLANE ( 'NONE',  #119 ) ;
#135 = EDGE_LOOP ( 'NONE', ( #227 ) ) ;
#136 = FACE_OUTER_BOUND ( 'NONE', #246, .T. ) ;
#137 = DIRECTION ( 'NONE',  ( 3.491481338843133355E-15, -4.327174794786742882E-16, 1.000000000000000000 ) ) ;
#138 = DIRECTION ( 'NONE',  ( -3.491481338843133355E-15, 4.327174794786742882E-16, -1.000000000000000000 ) ) ;
#139 = APPROVAL ( #123, 'UNSPECIFIED' ) ;
#140 = AXIS2_PLACEMENT_3D ( 'NONE', #224, #19, #86 ) ;
#141 = DIRECTION ( 'NONE',  ( -3.491481338843133355E-15, 4.327174794786742882E-16, -1.000000000000000000 ) ) ;
#142 = VERTEX_POINT ( 'NONE', #103 ) ;
#143 = DIRECTION ( 'NONE',  ( 0.0000000000000000000, 0.0000000000000000000, 1.000000000000000000 ) ) ;
#144 = AXIS2_PLACEMENT_3D ( 'NONE', #214, #41, #192 ) ;
#145 = AXIS2_PLACEMENT_3D ( 'NONE', #179, #24, #107 ) ;
#146 = ORIENTED_EDGE ( 'NONE', *, *, #80, .F. ) ;
#147 = CALENDAR_DATE ( 2021, 13, 10 ) ;
#148 = AXIS2_PLACEMENT_3D ( 'NONE', #23, #143, #161 ) ;
#149 = APPROVAL_STATUS ( 'not_yet_approved' ) ;
#150 = EDGE_LOOP ( 'NONE', ( #208 ) ) ;
#151 = DATE_TIME_ROLE ( 'classification_date' ) ;
#152 = ORIENTED_EDGE ( 'NONE', *, *, #201, .F. ) ;
#153 = DIRECTION ( 'NONE',  ( -5.135813185032677695E-31, -1.000000000000000000, -1.445602896647352968E-16 ) ) ;
#154 = EDGE_CURVE ( 'NONE', #6, #6, #205, .T. ) ;
#155 = CARTESIAN_POINT ( 'NONE',  ( 1.906192921252219839E-15, -6.686024735685277809E-17, 0.5459553513993053997 ) ) ;
#156 = DIRECTION ( 'NONE',  ( 0.0000000000000000000, 1.000000000000000000, 0.0000000000000000000 ) ) ;
#157 = EDGE_CURVE ( 'NONE', #164, #164, #115, .T. ) ;
#158 = CARTESIAN_POINT ( 'NONE',  ( 1.745740669421566678E-13, -6.123233995736766085E-15, 50.00000000000000000 ) ) ;
#159 = DIRECTION ( 'NONE',  ( 3.491481338843133355E-15, -1.224646799147353207E-16, 1.000000000000000000 ) ) ;
#160 = APPLICATION_PROTOCOL_DEFINITION ( 'international standard', 'config_control_design', 1994, #178 ) ;
#161 = DIRECTION ( 'NONE',  ( 1.000000000000000000, 0.0000000000000000000, 0.0000000000000000000 ) ) ;
#162 =( NAMED_UNIT ( * ) SI_UNIT ( $, .STERADIAN. ) SOLID_ANGLE_UNIT ( ) );
#163 = DIRECTION ( 'NONE',  ( 1.510825004591027679E-30, 1.000000000000000000, 4.327174794786742882E-16 ) ) ;
#164 = VERTEX_POINT ( 'NONE', #185 ) ;
#165 = AXIS2_PLACEMENT_3D ( 'NONE', #62, #258, #34 ) ;
#166 = CC_DESIGN_APPROVAL ( #139, ( #110 ) ) ;
#167 = ORIENTED_EDGE ( 'NONE', *, *, #157, .F. ) ;
#168 = CC_DESIGN_DATE_AND_TIME_ASSIGNMENT ( #90, #169, ( #110 ) ) ;
#169 = DATE_TIME_ROLE ( 'creation_date' ) ;
#170 = APPROVAL_PERSON_ORGANIZATION ( #251, #228, #171 ) ;
#171 = APPROVAL_ROLE ( '' ) ;
#172 = FACE_OUTER_BOUND ( 'NONE', #209, .T. ) ;
#173 = EDGE_LOOP ( 'NONE', ( #146 ) ) ;
#174 = EDGE_LOOP ( 'NONE', ( #234 ) ) ;
#175 = AXIS2_PLACEMENT_3D ( 'NONE', #257, #263, #176 ) ;
#176 = DIRECTION ( 'NONE',  ( 0.0000000000000000000, -1.000000000000000000, 0.0000000000000000000 ) ) ;
#177 = PRODUCT ( '960484', '960484', '', ( #126 ) ) ;
#178 = APPLICATION_CONTEXT ( 'configuration controlled 3d designs of mechanical parts and assemblies' ) ;
#179 = CARTESIAN_POINT ( 'NONE',  ( 5.799390120494538056E-14, -7.187486433152231595E-15, 16.61011346667001121 ) ) ;
#180 = COORDINATED_UNIVERSAL_TIME_OFFSET ( 1, 0, .AHEAD. ) ;
#181 = VERTEX_POINT ( 'NONE', #43 ) ;
#182 = AXIS2_PLACEMENT_3D ( 'NONE', #94, #97, #261 ) ;
#183 = LOCAL_TIME ( 14, 57, 30.00000000000000000, #108 ) ;
#184 = CC_DESIGN_PERSON_AND_ORGANIZATION_ASSIGNMENT ( #199, #241, ( #177 ) ) ;
#185 = CARTESIAN_POINT ( 'NONE',  ( 5.147870832982476181E-14, -1.500000000000001110, 14.74408806288556661 ) ) ;
#186 = DATE_AND_TIME ( #7, #88 ) ;
#187 = PERSON_AND_ORGANIZATION_ROLE ( 'creator' ) ;
#188 = ORIENTED_EDGE ( 'NONE', *, *, #52, .T. ) ;
#189 = APPROVAL_STATUS ( 'not_yet_approved' ) ;
#190 = CONICAL_SURFACE ( 'NONE', #5, 1.499999999999985789, 1.221730476396026610 ) ;
#191 = ADVANCED_BREP_SHAPE_REPRESENTATION ( '960484', ( #27, #200, #148 ), #231 ) ;
#192 = DIRECTION ( 'NONE',  ( 0.0000000000000000000, -1.000000000000000000, 0.0000000000000000000 ) ) ;
#193 = ORIENTED_EDGE ( 'NONE', *, *, #16, .T. ) ;
#194 = DIRECTION ( 'NONE',  ( 0.0000000000000000000, 1.000000000000000000, 0.0000000000000000000 ) ) ;
#195 = AXIS2_PLACEMENT_3D ( 'NONE', #216, #13, #197 ) ;
#196 = AXIS2_PLACEMENT_3D ( 'NONE', #235, #141, #156 ) ;
#197 = DIRECTION ( 'NONE',  ( -4.814824860968078247E-31, -1.000000000000000000, -1.355252715606877338E-16 ) ) ;
#198 = DIRECTION ( 'NONE',  ( -3.491481338843133355E-15, 1.224646799147353207E-16, -1.000000000000000000 ) ) ;
#199 = PERSON_AND_ORGANIZATION ( #256, #67 ) ;
#200 = MANIFOLD_SOLID_BREP ( 'Corps-Déplacer/Copier1[2]', #53 ) ;
#201 = EDGE_CURVE ( 'NONE', #47, #47, #1, .T. ) ;
#202 = FACE_BOUND ( 'NONE', #50, .T. ) ;
#203 = LOCAL_TIME ( 14, 57, 30.00000000000000000, #109 ) ;
#204 = CARTESIAN_POINT ( 'NONE',  ( 1.731774744066194397E-13, 1.499999999999994893, 49.60000000000000853 ) ) ;
#205 = CIRCLE ( 'NONE', #225, 0.8340741737109355070 ) ;
#206 = APPROVAL ( #149, 'UNSPECIFIED' ) ;
#207 = ADVANCED_FACE ( 'NONE', ( #120, #260 ), #254, .T. ) ;
#208 = ORIENTED_EDGE ( 'NONE', *, *, #16, .F. ) ;
#209 = EDGE_LOOP ( 'NONE', ( #133 ) ) ;
#210 = CC_DESIGN_PERSON_AND_ORGANIZATION_ASSIGNMENT ( #255, #31, ( #57 ) ) ;
#211 = CC_DESIGN_APPROVAL ( #228, ( #106 ) ) ;
#212 = CARTESIAN_POINT ( 'NONE',  ( 4.189777606611760026E-14, -5.204170427930421283E-15, 12.00000000000000000 ) ) ;
#213 = UNCERTAINTY_MEASURE_WITH_UNIT (LENGTH_MEASURE( 1.000000000000000082E-05 ), #124, 'distance_accuracy_value', 'NONE');
#214 = CARTESIAN_POINT ( 'NONE',  ( 3.631140592396858689E-14, -4.500261786578212440E-15, 10.40000000000000036 ) ) ;
#215 = ADVANCED_FACE ( 'NONE', ( #136 ), #134, .T. ) ;
#216 = CARTESIAN_POINT ( 'NONE',  ( 1.016636224667862913E-15, -3.565879859032190977E-17, 0.2911761874129663585 ) ) ;
#217 = AXIS2_PLACEMENT_3D ( 'NONE', #76, #12, #95 ) ;
#218 = DIRECTION ( 'NONE',  ( -3.491481338843133355E-15, 1.224646799147353207E-16, -1.000000000000000000 ) ) ;
#219 = PLANE ( 'NONE',  #217 ) ;
#220 = FACE_OUTER_BOUND ( 'NONE', #150, .T. ) ;
#221 = APPLICATION_PROTOCOL_DEFINITION ( 'international standard', 'config_control_design', 1994, #242 ) ;
#222 = CIRCLE ( 'NONE', #20, 1.100000000000000977 ) ;
#223 = CARTESIAN_POINT ( 'NONE',  ( 0.0000000000000000000, 0.0000000000000000000, 0.0000000000000000000 ) ) ;
#224 = CARTESIAN_POINT ( 'NONE',  ( 1.731774744066194397E-13, -6.074248123770872657E-15, 49.60000000000000853 ) ) ;
#225 = AXIS2_PLACEMENT_3D ( 'NONE', #78, #138, #59 ) ;
#226 = APPROVAL_DATE_TIME ( #113, #228 ) ;
#227 = ORIENTED_EDGE ( 'NONE', *, *, #252, .F. ) ;
#228 = APPROVAL ( #189, 'UNSPECIFIED' ) ;
#229 = APPROVAL_ROLE ( '' ) ;
#230 = SECURITY_CLASSIFICATION_LEVEL ( 'unclassified' ) ;
#231 =( GEOMETRIC_REPRESENTATION_CONTEXT ( 3 ) GLOBAL_UNCERTAINTY_ASSIGNED_CONTEXT ( ( #213 ) ) GLOBAL_UNIT_ASSIGNED_CONTEXT ( ( #124, #101, #162 ) ) REPRESENTATION_CONTEXT ( 'NONE', 'WORKASPACE' ) );
#232 = ADVANCED_FACE ( 'NONE', ( #236, #58 ), #36, .T. ) ;
#233 = DATE_AND_TIME ( #147, #100 ) ;
#234 = ORIENTED_EDGE ( 'NONE', *, *, #157, .T. ) ;
#235 = CARTESIAN_POINT ( 'NONE',  ( 4.189777606611760026E-14, -5.192609753744091458E-15, 12.00000000000000000 ) ) ;
#236 = FACE_OUTER_BOUND ( 'NONE', #174, .T. ) ;
#237 = DIRECTION ( 'NONE',  ( -3.491481338843133355E-15, 4.327174794786742882E-16, -1.000000000000000000 ) ) ;
#238 = DIRECTION ( 'NONE',  ( 3.491481338843133355E-15, -1.224646799147353207E-16, 1.000000000000000000 ) ) ;
#239 = TOROIDAL_SURFACE ( 'NONE', #84, 1.800000000000003597, 1.000000000000000000 ) ;
#240 = CYLINDRICAL_SURFACE ( 'NONE', #70, 0.8000000000000019318 ) ;
#241 = PERSON_AND_ORGANIZATION_ROLE ( 'design_owner' ) ;
#242 = APPLICATION_CONTEXT ( 'configuration controlled 3d designs of mechanical parts and assemblies' ) ;
#243 = CALENDAR_DATE ( 2021, 13, 10 ) ;
#244 = ADVANCED_FACE ( 'NONE', ( #202, #2 ), #39, .T. ) ;
#245 = CARTESIAN_POINT ( 'NONE',  ( 4.280143793223025133E-14, 0.8340741737109301779, 12.25881904510252163 ) ) ;
#246 = EDGE_LOOP ( 'NONE', ( #26 ) ) ;
#247 = ADVANCED_FACE ( 'NONE', ( #66, #220 ), #240, .T. ) ;
#248 = LOCAL_TIME ( 14, 57, 30.00000000000000000, #180 ) ;
#249 = PERSON_AND_ORGANIZATION ( #256, #67 ) ;
#250 = CYLINDRICAL_SURFACE ( 'NONE', #165, 0.8000000000000019318 ) ;
#251 = PERSON_AND_ORGANIZATION ( #256, #67 ) ;
#252 = EDGE_CURVE ( 'NONE', #45, #45, #85, .T. ) ;
#253 = DESIGN_CONTEXT ( 'detailed design', #242, 'design' ) ;
#254 = CONICAL_SURFACE ( 'NONE', #21, 1.100000000000000977, 0.7853981633974512766 ) ;
#255 = PERSON_AND_ORGANIZATION ( #256, #67 ) ;
#256 = PERSON ( 'UNSPECIFIED', 'UNSPECIFIED', 'UNSPECIFIED', ('UNSPECIFIED'), ('UNSPECIFIED'), ('UNSPECIFIED') ) ;
#257 = CARTESIAN_POINT ( 'NONE',  ( 3.631140592396858689E-14, -4.500261786578212440E-15, 10.40000000000000036 ) ) ;
#258 = DIRECTION ( 'NONE',  ( -3.491481338843133355E-15, 4.327174794786742882E-16, -1.000000000000000000 ) ) ;
#259 = CIRCLE ( 'NONE', #175, 0.8000000000000019318 ) ;
#260 = FACE_BOUND ( 'NONE', #54, .T. ) ;
#261 = DIRECTION ( 'NONE',  ( -4.275831445896958607E-31, -1.000000000000000000, -1.224646799147353207E-16 ) ) ;
#262 = CC_DESIGN_PERSON_AND_ORGANIZATION_ASSIGNMENT ( #249, #130, ( #106 ) ) ;
#263 = DIRECTION ( 'NONE',  ( -3.491481338843133355E-15, 1.224646799147353207E-16, -1.000000000000000000 ) ) ;
ENDSEC;
END-ISO-10303-21;
