ISO-10303-21;
HEADER;
FILE_DESCRIPTION (( 'STEP AP203' ),
    '1' );
FILE_NAME ('960483.step',
    '2021-10-13T12:57:29',
    ( '' ),
    ( '' ),
    'SwSTEP 2.0',
    'SolidWorks 2019',
    '' );
FILE_SCHEMA (( 'CONFIG_CONTROL_DESIGN' ));
ENDSEC;

DATA;
#1 = ORIENTED_EDGE ( 'NONE', *, *, #209, .F. ) ;
#2 = DIRECTION ( 'NONE',  ( 3.491481338843133355E-15, -1.224646799147353207E-16, 1.000000000000000000 ) ) ;
#3 = CALENDAR_DATE ( 2021, 13, 10 ) ;
#4 = PERSON_AND_ORGANIZATION ( #184, #160 ) ;
#5 = EDGE_CURVE ( 'NONE', #40, #40, #145, .T. ) ;
#6 = CARTESIAN_POINT ( 'NONE',  ( 4.035740099504005798E-14, 0.7840741737109304665, 11.55881904510252234 ) ) ;
#7 = AXIS2_PLACEMENT_3D ( 'NONE', #70, #149, #17 ) ;
#8 = DATE_TIME_ROLE ( 'classification_date' ) ;
#9 = EDGE_CURVE ( 'NONE', #103, #103, #255, .T. ) ;
#10 = COORDINATED_UNIVERSAL_TIME_OFFSET ( 1, 0, .AHEAD. ) ;
#11 = ORIENTED_EDGE ( 'NONE', *, *, #5, .T. ) ;
#12 = FACE_OUTER_BOUND ( 'NONE', #141, .T. ) ;
#13 = EDGE_CURVE ( 'NONE', #82, #82, #218, .T. ) ;
#14 = AXIS2_PLACEMENT_3D ( 'NONE', #215, #38, #238 ) ;
#15 = CARTESIAN_POINT ( 'NONE',  ( 4.968619068014662592E-14, -1.500000000000000888, 14.23069060326401036 ) ) ;
#16 = EDGE_LOOP ( 'NONE', ( #190 ) ) ;
#17 = DIRECTION ( 'NONE',  ( 0.0000000000000000000, 1.000000000000000000, 0.0000000000000000000 ) ) ;
#18 = CARTESIAN_POINT ( 'NONE',  ( 1.745740669421566678E-13, 8.248678804640133367E-33, 50.00000000000000000 ) ) ;
#19 = FACE_OUTER_BOUND ( 'NONE', #158, .T. ) ;
#20 = DIRECTION ( 'NONE',  ( 3.491481338843133355E-15, -4.327174794786742882E-16, 1.000000000000000000 ) ) ;
#21 = CYLINDRICAL_SURFACE ( 'NONE', #248, 0.7500000000000017764 ) ;
#22 = ADVANCED_FACE ( 'NONE', ( #12 ), #129, .T. ) ;
#23 = CARTESIAN_POINT ( 'NONE',  ( 1.731774744066194397E-13, -6.074248123770872657E-15, 49.60000000000000853 ) ) ;
#24 = APPLICATION_CONTEXT ( 'configuration controlled 3d designs of mechanical parts and assemblies' ) ;
#25 = EDGE_LOOP ( 'NONE', ( #205 ) ) ;
#26 = LOCAL_TIME ( 14, 57, 29.00000000000000000, #147 ) ;
#27 = EDGE_LOOP ( 'NONE', ( #121 ) ) ;
#28 = PERSON_AND_ORGANIZATION ( #184, #160 ) ;
#29 = APPROVAL_PERSON_ORGANIZATION ( #4, #139, #206 ) ;
#30 = PERSON_AND_ORGANIZATION ( #184, #160 ) ;
#31 = EDGE_LOOP ( 'NONE', ( #60 ) ) ;
#32 = CC_DESIGN_APPROVAL ( #119, ( #43 ) ) ;
#33 = DIRECTION ( 'NONE',  ( -5.135813185032616388E-31, -1.000000000000000000, -1.445602896647335712E-16 ) ) ;
#34 = DIRECTION ( 'NONE',  ( -3.491481338843133355E-15, 1.224646799147353207E-16, -1.000000000000000000 ) ) ;
#35 = ADVANCED_FACE ( 'NONE', ( #223, #125 ), #193, .T. ) ;
#36 = CARTESIAN_POINT ( 'NONE',  ( 4.968619068014662592E-14, -6.157868569085257674E-15, 14.23069060326401036 ) ) ;
#37 = CIRCLE ( 'NONE', #97, 1.499999999999994893 ) ;
#38 = DIRECTION ( 'NONE',  ( -3.491481338843133355E-15, 1.224646799147353207E-16, -1.000000000000000000 ) ) ;
#39 = ADVANCED_FACE ( 'NONE', ( #110, #231 ), #196, .T. ) ;
#40 = VERTEX_POINT ( 'NONE', #187 ) ;
#41 = LOCAL_TIME ( 14, 57, 29.00000000000000000, #127 ) ;
#42 = ORIENTED_EDGE ( 'NONE', *, *, #9, .T. ) ;
#43 = PRODUCT_DEFINITION ( 'UNKNOWN', '', #199, #61 ) ;
#44 = EDGE_LOOP ( 'NONE', ( #244 ) ) ;
#45 = APPROVAL_DATE_TIME ( #249, #119 ) ;
#46 = CARTESIAN_POINT ( 'NONE',  ( 4.035740099504005798E-14, -5.001703042946859575E-15, 11.55881904510252234 ) ) ;
#47 = CIRCLE ( 'NONE', #14, 0.7500000000000017764 ) ;
#48 = CARTESIAN_POINT ( 'NONE',  ( 3.421651712066271319E-14, -0.7500000000000059952, 9.800000000000000711 ) ) ;
#49 = MANIFOLD_SOLID_BREP ( 'Corps-Déplacer/Copier1[2]', #98 ) ;
#50 = EDGE_LOOP ( 'NONE', ( #51 ) ) ;
#51 = ORIENTED_EDGE ( 'NONE', *, *, #5, .F. ) ;
#52 = VERTEX_POINT ( 'NONE', #112 ) ;
#53 = DIRECTION ( 'NONE',  ( 1.549450887359405403E-30, 1.000000000000000000, 4.327174794786742882E-16 ) ) ;
#54 = LOCAL_TIME ( 14, 57, 29.00000000000000000, #81 ) ;
#55 = DIRECTION ( 'NONE',  ( 4.275831445896958607E-31, 1.000000000000000000, 1.224646799147353207E-16 ) ) ;
#56 = CARTESIAN_POINT ( 'NONE',  ( 3.421651712066271319E-14, -4.240631298891008498E-15, 9.800000000000000711 ) ) ;
#57 = FACE_OUTER_BOUND ( 'NONE', #25, .T. ) ;
#58 =( NAMED_UNIT ( * ) PLANE_ANGLE_UNIT ( ) SI_UNIT ( $, .RADIAN. ) );
#59 = EDGE_LOOP ( 'NONE', ( #11 ) ) ;
#60 = ORIENTED_EDGE ( 'NONE', *, *, #13, .F. ) ;
#61 = DESIGN_CONTEXT ( 'detailed design', #24, 'design' ) ;
#62 = PERSON_AND_ORGANIZATION_ROLE ( 'design_supplier' ) ;
#63 = CARTESIAN_POINT ( 'NONE',  ( 3.421651712066271319E-14, 1.124819836996382806E-32, 9.800000000000000711 ) ) ;
#64 = APPROVAL_STATUS ( 'not_yet_approved' ) ;
#65 = AXIS2_PLACEMENT_3D ( 'NONE', #150, #197, #262 ) ;
#66 = CALENDAR_DATE ( 2021, 13, 10 ) ;
#67 = APPROVAL_ROLE ( '' ) ;
#68 = DIRECTION ( 'NONE',  ( -3.491481338843133355E-15, 1.224646799147353207E-16, -1.000000000000000000 ) ) ;
#69 = TOROIDAL_SURFACE ( 'NONE', #228, 1.750000000000003553, 0.9999999999999997780 ) ;
#70 = CARTESIAN_POINT ( 'NONE',  ( 1.745740669421566678E-13, -6.123233995736766085E-15, 50.00000000000000000 ) ) ;
#71 = DIRECTION ( 'NONE',  ( 3.491481338843133355E-15, -1.224646799147353207E-16, 1.000000000000000000 ) ) ;
#72 = CC_DESIGN_APPROVAL ( #246, ( #180 ) ) ;
#73 = PLANE ( 'NONE',  #77 ) ;
#74 = CARTESIAN_POINT ( 'NONE',  ( 0.0000000000000000000, 0.0000000000000000000, 0.0000000000000000000 ) ) ;
#75 = CARTESIAN_POINT ( 'NONE',  ( 9.530964606261213581E-16, -3.343012367842678348E-17, 0.2729776756996559195 ) ) ;
#76 = AXIS2_PLACEMENT_3D ( 'NONE', #87, #229, #234 ) ;
#77 = AXIS2_PLACEMENT_3D ( 'NONE', #137, #71, #194 ) ;
#78 = CARTESIAN_POINT ( 'NONE',  ( 3.945373912892741323E-14, -4.889707518109019930E-15, 11.30000000000000071 ) ) ;
#79 = CARTESIAN_POINT ( 'NONE',  ( 9.530964606261209636E-16, -0.7500000000000017764, 0.2729776756996558085 ) ) ;
#80 = DIRECTION ( 'NONE',  ( 0.0000000000000000000, 1.000000000000000000, 0.0000000000000000000 ) ) ;
#81 = COORDINATED_UNIVERSAL_TIME_OFFSET ( 1, 0, .AHEAD. ) ;
#82 = VERTEX_POINT ( 'NONE', #88 ) ;
#83 = PERSON_AND_ORGANIZATION ( #184, #160 ) ;
#84 = CIRCLE ( 'NONE', #7, 1.100000000000000977 ) ;
#85 = PERSON_AND_ORGANIZATION ( #184, #160 ) ;
#86 = CALENDAR_DATE ( 2021, 13, 10 ) ;
#87 = CARTESIAN_POINT ( 'NONE',  ( 1.745740669421566678E-13, -6.123233995736766085E-15, 50.00000000000000000 ) ) ;
#88 = CARTESIAN_POINT ( 'NONE',  ( 3.945373912892741323E-14, 0.7499999999999985567, 11.30000000000000071 ) ) ;
#89 = AXIS2_PLACEMENT_3D ( 'NONE', #18, #116, #55 ) ;
#90 = ORIENTED_EDGE ( 'NONE', *, *, #188, .F. ) ;
#91 = FACE_OUTER_BOUND ( 'NONE', #220, .T. ) ;
#92 = FACE_BOUND ( 'NONE', #242, .T. ) ;
#93 = FACE_OUTER_BOUND ( 'NONE', #31, .T. ) ;
#94 = DIRECTION ( 'NONE',  ( -3.491481338843133355E-15, 4.327174794786742882E-16, -1.000000000000000000 ) ) ;
#95 = PRODUCT_RELATED_PRODUCT_CATEGORY ( 'detail', '', ( #138 ) ) ;
#96 = VERTEX_POINT ( 'NONE', #175 ) ;
#97 = AXIS2_PLACEMENT_3D ( 'NONE', #36, #20, #212 ) ;
#98 = CLOSED_SHELL ( 'NONE', ( #164, #259, #22 ) ) ;
#99 = AXIS2_PLACEMENT_3D ( 'NONE', #74, #94, #153 ) ;
#100 = DIRECTION ( 'NONE',  ( 0.0000000000000000000, 1.000000000000000000, 0.0000000000000000000 ) ) ;
#101 = ADVANCED_FACE ( 'NONE', ( #111 ), #73, .F. ) ;
#102 = DIRECTION ( 'NONE',  ( 1.000000000000000000, 0.0000000000000000000, 0.0000000000000000000 ) ) ;
#103 = VERTEX_POINT ( 'NONE', #6 ) ;
#104 = UNCERTAINTY_MEASURE_WITH_UNIT (LENGTH_MEASURE( 1.000000000000000082E-05 ), #241, 'distance_accuracy_value', 'NONE');
#105 = APPROVAL_ROLE ( '' ) ;
#106 = CONICAL_SURFACE ( 'NONE', #65, 1.499999999999985789, 1.221730476396026610 ) ;
#107 = DATE_AND_TIME ( #66, #118 ) ;
#108 = EDGE_LOOP ( 'NONE', ( #201 ) ) ;
#109 = EDGE_LOOP ( 'NONE', ( #90 ) ) ;
#110 = FACE_OUTER_BOUND ( 'NONE', #27, .T. ) ;
#111 = FACE_OUTER_BOUND ( 'NONE', #211, .T. ) ;
#112 = CARTESIAN_POINT ( 'NONE',  ( 1.745740669421566678E-13, 1.099999999999994760, 50.00000000000000000 ) ) ;
#113 = ADVANCED_FACE ( 'NONE', ( #216 ), #236, .F. ) ;
#114 = CIRCLE ( 'NONE', #217, 0.7500000000000017764 ) ;
#115 = VERTEX_POINT ( 'NONE', #15 ) ;
#116 = DIRECTION ( 'NONE',  ( -3.491481338843133355E-15, 1.224646799147353207E-16, -1.000000000000000000 ) ) ;
#117 = DIRECTION ( 'NONE',  ( 0.0000000000000000000, -1.000000000000000000, 0.0000000000000000000 ) ) ;
#118 = LOCAL_TIME ( 14, 57, 29.00000000000000000, #210 ) ;
#119 = APPROVAL ( #227, 'UNSPECIFIED' ) ;
#120 =( NAMED_UNIT ( * ) SI_UNIT ( $, .STERADIAN. ) SOLID_ANGLE_UNIT ( ) );
#121 = ORIENTED_EDGE ( 'NONE', *, *, #178, .T. ) ;
#122 = EDGE_LOOP ( 'NONE', ( #42 ) ) ;
#123 = PERSON_AND_ORGANIZATION_ROLE ( 'classification_officer' ) ;
#124 = AXIS2_PLACEMENT_3D ( 'NONE', #23, #68, #100 ) ;
#125 = FACE_BOUND ( 'NONE', #44, .T. ) ;
#126 = DIRECTION ( 'NONE',  ( 0.0000000000000000000, 0.0000000000000000000, 1.000000000000000000 ) ) ;
#127 = COORDINATED_UNIVERSAL_TIME_OFFSET ( 1, 0, .AHEAD. ) ;
#128 = MECHANICAL_CONTEXT ( 'NONE', #198, 'mechanical' ) ;
#129 = PLANE ( 'NONE',  #203 ) ;
#130 = ORIENTED_EDGE ( 'NONE', *, *, #261, .T. ) ;
#131 = VERTEX_POINT ( 'NONE', #79 ) ;
#132 = CARTESIAN_POINT ( 'NONE',  ( 3.945373912892741323E-14, -4.987329993433320396E-15, 11.30000000000000071 ) ) ;
#133 = AXIS2_PLACEMENT_3D ( 'NONE', #195, #166, #257 ) ;
#134 = EDGE_CURVE ( 'NONE', #250, #250, #47, .T. ) ;
#135 = FACE_OUTER_BOUND ( 'NONE', #122, .T. ) ;
#136 = DIRECTION ( 'NONE',  ( -3.491481338843133355E-15, 4.327174794786742882E-16, -1.000000000000000000 ) ) ;
#137 = CARTESIAN_POINT ( 'NONE',  ( 3.421651712066271319E-14, 1.124819836996382806E-32, 9.800000000000000711 ) ) ;
#138 = PRODUCT ( '960483', '960483', '', ( #128 ) ) ;
#139 = APPROVAL ( #64, 'UNSPECIFIED' ) ;
#140 = AXIS2_PLACEMENT_3D ( 'NONE', #56, #176, #117 ) ;
#141 = EDGE_LOOP ( 'NONE', ( #148 ) ) ;
#142 = PERSON_AND_ORGANIZATION ( #184, #160 ) ;
#143 = DIRECTION ( 'NONE',  ( -4.275831445896958607E-31, -1.000000000000000000, -1.224646799147353207E-16 ) ) ;
#144 = APPROVAL_PERSON_ORGANIZATION ( #222, #119, #105 ) ;
#145 = CIRCLE ( 'NONE', #124, 1.500000000000000888 ) ;
#146 = SECURITY_CLASSIFICATION_LEVEL ( 'unclassified' ) ;
#147 = COORDINATED_UNIVERSAL_TIME_OFFSET ( 1, 0, .AHEAD. ) ;
#148 = ORIENTED_EDGE ( 'NONE', *, *, #261, .F. ) ;
#149 = DIRECTION ( 'NONE',  ( -3.491481338843133355E-15, 1.224646799147353207E-16, -1.000000000000000000 ) ) ;
#150 = CARTESIAN_POINT ( 'NONE',  ( 1.906192921252219839E-15, -6.686024735685277809E-17, 0.5459553513993053997 ) ) ;
#151 = CC_DESIGN_APPROVAL ( #139, ( #199 ) ) ;
#152 = FACE_OUTER_BOUND ( 'NONE', #108, .T. ) ;
#153 = DIRECTION ( 'NONE',  ( 1.510825004591027679E-30, 1.000000000000000000, 4.327174794786742389E-16 ) ) ;
#154 = FACE_OUTER_BOUND ( 'NONE', #16, .T. ) ;
#155 = CLOSED_SHELL ( 'NONE', ( #39, #35, #113, #168, #186, #235, #101 ) ) ;
#156 = DIRECTION ( 'NONE',  ( -3.491481338843133355E-15, 4.327174794786742882E-16, -1.000000000000000000 ) ) ;
#157 = PERSON_AND_ORGANIZATION ( #184, #160 ) ;
#158 = EDGE_LOOP ( 'NONE', ( #130 ) ) ;
#159 = DATE_AND_TIME ( #86, #177 ) ;
#160 = ORGANIZATION ( 'UNSPECIFIED', 'UNSPECIFIED', '' ) ;
#161 = APPROVAL_STATUS ( 'not_yet_approved' ) ;
#162 = CC_DESIGN_PERSON_AND_ORGANIZATION_ASSIGNMENT ( #83, #251, ( #138 ) ) ;
#163 = ORIENTED_EDGE ( 'NONE', *, *, #178, .F. ) ;
#164 = ADVANCED_FACE ( 'NONE', ( #152 ), #106, .T. ) ;
#165 = AXIS2_PLACEMENT_3D ( 'NONE', #208, #126, #102 ) ;
#166 = DIRECTION ( 'NONE',  ( 3.491481338843133355E-15, -4.327174794786742882E-16, 1.000000000000000000 ) ) ;
#167 = CARTESIAN_POINT ( 'NONE',  ( 0.0000000000000000000, 0.0000000000000000000, 0.0000000000000000000 ) ) ;
#168 = ADVANCED_FACE ( 'NONE', ( #154, #57 ), #21, .T. ) ;
#169 = APPROVAL_DATE_TIME ( #256, #246 ) ;
#170 = CC_DESIGN_PERSON_AND_ORGANIZATION_ASSIGNMENT ( #28, #62, ( #199 ) ) ;
#171 = CC_DESIGN_SECURITY_CLASSIFICATION ( #180, ( #199 ) ) ;
#172 = SHAPE_DEFINITION_REPRESENTATION ( #240, #207 ) ;
#173 = DIRECTION ( 'NONE',  ( -3.491481338843133355E-15, 4.327174794786742882E-16, -1.000000000000000000 ) ) ;
#174 = DIRECTION ( 'NONE',  ( 4.275831445896958607E-31, 1.000000000000000000, 1.224646799147353207E-16 ) ) ;
#175 = CARTESIAN_POINT ( 'NONE',  ( 3.421651712066271319E-14, -0.7500000000000059952, 9.800000000000000711 ) ) ;
#176 = DIRECTION ( 'NONE',  ( -3.491481338843133355E-15, 1.224646799147353207E-16, -1.000000000000000000 ) ) ;
#177 = LOCAL_TIME ( 14, 57, 29.00000000000000000, #10 ) ;
#178 = EDGE_CURVE ( 'NONE', #115, #115, #37, .T. ) ;
#179 = DIRECTION ( 'NONE',  ( -3.491481338843133355E-15, 4.327174794786742882E-16, -1.000000000000000000 ) ) ;
#180 = SECURITY_CLASSIFICATION ( '', '', #146 ) ;
#181 = DIRECTION ( 'NONE',  ( 0.0000000000000000000, 1.000000000000000000, 0.0000000000000000000 ) ) ;
#182 = APPLICATION_PROTOCOL_DEFINITION ( 'international standard', 'config_control_design', 1994, #24 ) ;
#183 = DATE_AND_TIME ( #204, #41 ) ;
#184 = PERSON ( 'UNSPECIFIED', 'UNSPECIFIED', 'UNSPECIFIED', ('UNSPECIFIED'), ('UNSPECIFIED'), ('UNSPECIFIED') ) ;
#185 = APPROVAL_PERSON_ORGANIZATION ( #85, #246, #67 ) ;
#186 = ADVANCED_FACE ( 'NONE', ( #92, #263 ), #213, .T. ) ;
#187 = CARTESIAN_POINT ( 'NONE',  ( 1.731774744066194397E-13, 1.499999999999994893, 49.60000000000000853 ) ) ;
#188 = EDGE_CURVE ( 'NONE', #52, #52, #84, .T. ) ;
#189 = APPROVAL_DATE_TIME ( #107, #139 ) ;
#190 = ORIENTED_EDGE ( 'NONE', *, *, #13, .T. ) ;
#191 = CC_DESIGN_PERSON_AND_ORGANIZATION_ASSIGNMENT ( #157, #243, ( #199 ) ) ;
#192 = ORIENTED_EDGE ( 'NONE', *, *, #9, .F. ) ;
#193 = CONICAL_SURFACE ( 'NONE', #76, 1.100000000000000977, 0.7853981633974512766 ) ;
#194 = DIRECTION ( 'NONE',  ( -4.275831445896958607E-31, -1.000000000000000000, -1.224646799147353207E-16 ) ) ;
#195 = CARTESIAN_POINT ( 'NONE',  ( 5.620138355526722574E-14, -6.965330378454036796E-15, 16.09671600704845318 ) ) ;
#196 = CYLINDRICAL_SURFACE ( 'NONE', #224, 1.499999999999994893 ) ;
#197 = DIRECTION ( 'NONE',  ( 3.491481338843133355E-15, -1.224646799147353207E-16, 1.000000000000000000 ) ) ;
#198 = APPLICATION_CONTEXT ( 'configuration controlled 3d designs of mechanical parts and assemblies' ) ;
#199 = PRODUCT_DEFINITION_FORMATION_WITH_SPECIFIED_SOURCE ( 'ANY', '', #138, .NOT_KNOWN. ) ;
#200 = CC_DESIGN_DATE_AND_TIME_ASSIGNMENT ( #183, #8, ( #180 ) ) ;
#201 = ORIENTED_EDGE ( 'NONE', *, *, #209, .T. ) ;
#202 = AXIS2_PLACEMENT_3D ( 'NONE', #46, #179, #80 ) ;
#203 = AXIS2_PLACEMENT_3D ( 'NONE', #63, #2, #143 ) ;
#204 = CALENDAR_DATE ( 2021, 13, 10 ) ;
#205 = ORIENTED_EDGE ( 'NONE', *, *, #134, .F. ) ;
#206 = APPROVAL_ROLE ( '' ) ;
#207 = ADVANCED_BREP_SHAPE_REPRESENTATION ( '960483', ( #221, #49, #165 ), #247 ) ;
#208 = CARTESIAN_POINT ( 'NONE',  ( 0.0000000000000000000, 0.0000000000000000000, 0.0000000000000000000 ) ) ;
#209 = EDGE_CURVE ( 'NONE', #131, #131, #114, .T. ) ;
#210 = COORDINATED_UNIVERSAL_TIME_OFFSET ( 1, 0, .AHEAD. ) ;
#211 = EDGE_LOOP ( 'NONE', ( #230 ) ) ;
#212 = DIRECTION ( 'NONE',  ( 0.0000000000000000000, -1.000000000000000000, 0.0000000000000000000 ) ) ;
#213 = CONICAL_SURFACE ( 'NONE', #133, 1.999999999999997335, 0.2617993877991502960 ) ;
#214 = CYLINDRICAL_SURFACE ( 'NONE', #99, 0.7500000000000017764 ) ;
#215 = CARTESIAN_POINT ( 'NONE',  ( 3.421651712066271319E-14, -4.240631298891008498E-15, 9.800000000000000711 ) ) ;
#216 = FACE_OUTER_BOUND ( 'NONE', #109, .T. ) ;
#217 = AXIS2_PLACEMENT_3D ( 'NONE', #75, #232, #33 ) ;
#218 = CIRCLE ( 'NONE', #233, 0.7500000000000034417 ) ;
#219 = CC_DESIGN_PERSON_AND_ORGANIZATION_ASSIGNMENT ( #30, #245, ( #43 ) ) ;
#220 = EDGE_LOOP ( 'NONE', ( #1 ) ) ;
#221 = MANIFOLD_SOLID_BREP ( 'Corps-Déplacer/Copier1[1]', #155 ) ;
#222 = PERSON_AND_ORGANIZATION ( #184, #160 ) ;
#223 = FACE_OUTER_BOUND ( 'NONE', #50, .T. ) ;
#224 = AXIS2_PLACEMENT_3D ( 'NONE', #260, #34, #174 ) ;
#225 = APPLICATION_PROTOCOL_DEFINITION ( 'international standard', 'config_control_design', 1994, #198 ) ;
#226 = CALENDAR_DATE ( 2021, 13, 10 ) ;
#227 = APPROVAL_STATUS ( 'not_yet_approved' ) ;
#228 = AXIS2_PLACEMENT_3D ( 'NONE', #132, #173, #53 ) ;
#229 = DIRECTION ( 'NONE',  ( -3.491481338843133355E-15, 1.224646799147353207E-16, -1.000000000000000000 ) ) ;
#230 = ORIENTED_EDGE ( 'NONE', *, *, #134, .T. ) ;
#231 = FACE_OUTER_BOUND ( 'NONE', #59, .T. ) ;
#232 = DIRECTION ( 'NONE',  ( -3.491481338843133355E-15, 1.224646799147353207E-16, -1.000000000000000000 ) ) ;
#233 = AXIS2_PLACEMENT_3D ( 'NONE', #78, #156, #181 ) ;
#234 = DIRECTION ( 'NONE',  ( 0.0000000000000000000, 1.000000000000000000, 0.0000000000000000000 ) ) ;
#235 = ADVANCED_FACE ( 'NONE', ( #93, #135 ), #69, .F. ) ;
#236 = PLANE ( 'NONE',  #89 ) ;
#237 = CC_DESIGN_DATE_AND_TIME_ASSIGNMENT ( #159, #253, ( #43 ) ) ;
#238 = DIRECTION ( 'NONE',  ( 0.0000000000000000000, -1.000000000000000000, 0.0000000000000000000 ) ) ;
#239 = CIRCLE ( 'NONE', #140, 0.7500000000000017764 ) ;
#240 = PRODUCT_DEFINITION_SHAPE ( 'NONE', 'NONE',  #43 ) ;
#241 =( LENGTH_UNIT ( ) NAMED_UNIT ( * ) SI_UNIT ( .MILLI., .METRE. ) );
#242 = EDGE_LOOP ( 'NONE', ( #192 ) ) ;
#243 = PERSON_AND_ORGANIZATION_ROLE ( 'creator' ) ;
#244 = ORIENTED_EDGE ( 'NONE', *, *, #188, .T. ) ;
#245 = PERSON_AND_ORGANIZATION_ROLE ( 'creator' ) ;
#246 = APPROVAL ( #161, 'UNSPECIFIED' ) ;
#247 =( GEOMETRIC_REPRESENTATION_CONTEXT ( 3 ) GLOBAL_UNCERTAINTY_ASSIGNED_CONTEXT ( ( #104 ) ) GLOBAL_UNIT_ASSIGNED_CONTEXT ( ( #241, #58, #120 ) ) REPRESENTATION_CONTEXT ( 'NONE', 'WORKASPACE' ) );
#248 = AXIS2_PLACEMENT_3D ( 'NONE', #167, #136, #258 ) ;
#249 = DATE_AND_TIME ( #3, #54 ) ;
#250 = VERTEX_POINT ( 'NONE', #48 ) ;
#251 = PERSON_AND_ORGANIZATION_ROLE ( 'design_owner' ) ;
#252 = CC_DESIGN_PERSON_AND_ORGANIZATION_ASSIGNMENT ( #142, #123, ( #180 ) ) ;
#253 = DATE_TIME_ROLE ( 'creation_date' ) ;
#254 = EDGE_LOOP ( 'NONE', ( #163 ) ) ;
#255 = CIRCLE ( 'NONE', #202, 0.7840741737109354625 ) ;
#256 = DATE_AND_TIME ( #226, #26 ) ;
#257 = DIRECTION ( 'NONE',  ( 0.0000000000000000000, -1.000000000000000000, 0.0000000000000000000 ) ) ;
#258 = DIRECTION ( 'NONE',  ( 1.510825004591027679E-30, 1.000000000000000000, 4.327174794786742389E-16 ) ) ;
#259 = ADVANCED_FACE ( 'NONE', ( #19, #91 ), #214, .T. ) ;
#260 = CARTESIAN_POINT ( 'NONE',  ( 0.0000000000000000000, 0.0000000000000000000, 0.0000000000000000000 ) ) ;
#261 = EDGE_CURVE ( 'NONE', #96, #96, #239, .T. ) ;
#262 = DIRECTION ( 'NONE',  ( -5.135813185032677695E-31, -1.000000000000000000, -1.445602896647352968E-16 ) ) ;
#263 = FACE_OUTER_BOUND ( 'NONE', #254, .T. ) ;
ENDSEC;
END-ISO-10303-21;
