ISO-10303-21;
HEADER;
FILE_DESCRIPTION (( 'STEP AP203' ),
    '1' );
FILE_NAME ('960482.step',
    '2021-10-13T12:57:29',
    ( '' ),
    ( '' ),
    'SwSTEP 2.0',
    'SolidWorks 2019',
    '' );
FILE_SCHEMA (( 'CONFIG_CONTROL_DESIGN' ));
ENDSEC;

DATA;
#1 = CIRCLE ( 'NONE', #225, 0.7340741737109351961 ) ;
#2 = APPROVAL_STATUS ( 'not_yet_approved' ) ;
#3 = ORIENTED_EDGE ( 'NONE', *, *, #205, .T. ) ;
#4 = EDGE_LOOP ( 'NONE', ( #173 ) ) ;
#5 = EDGE_CURVE ( 'NONE', #23, #23, #88, .T. ) ;
#6 =( LENGTH_UNIT ( ) NAMED_UNIT ( * ) SI_UNIT ( .MILLI., .METRE. ) );
#7 = DIRECTION ( 'NONE',  ( 0.0000000000000000000, 1.000000000000000000, 0.0000000000000000000 ) ) ;
#8 = ORIENTED_EDGE ( 'NONE', *, *, #30, .F. ) ;
#9 = AXIS2_PLACEMENT_3D ( 'NONE', #195, #71, #233 ) ;
#10 = CARTESIAN_POINT ( 'NONE',  ( 8.895566965843796055E-16, -0.7000000000000016209, 0.2547791639863454805 ) ) ;
#11 = AXIS2_PLACEMENT_3D ( 'NONE', #28, #35, #86 ) ;
#12 = DIRECTION ( 'NONE',  ( -3.491481338843133355E-15, 1.224646799147353207E-16, -1.000000000000000000 ) ) ;
#13 = DATE_AND_TIME ( #57, #37 ) ;
#14 = CYLINDRICAL_SURFACE ( 'NONE', #9, 1.499999999999994893 ) ;
#15 = PERSON_AND_ORGANIZATION ( #131, #151 ) ;
#16 = EDGE_CURVE ( 'NONE', #56, #56, #230, .T. ) ;
#17 = PLANE ( 'NONE',  #206 ) ;
#18 = CC_DESIGN_APPROVAL ( #152, ( #110 ) ) ;
#19 = CARTESIAN_POINT ( 'NONE',  ( 3.756421592396555761E-14, 0.7340741737109305332, 10.75881904510252163 ) ) ;
#20 = FACE_OUTER_BOUND ( 'NONE', #83, .T. ) ;
#21 = ADVANCED_FACE ( 'NONE', ( #70, #72 ), #252, .F. ) ;
#22 = CARTESIAN_POINT ( 'NONE',  ( 1.906192921252219839E-15, -6.686024735685277809E-17, 0.5459553513993053997 ) ) ;
#23 = VERTEX_POINT ( 'NONE', #77 ) ;
#24 = VERTEX_POINT ( 'NONE', #10 ) ;
#25 = ORIENTED_EDGE ( 'NONE', *, *, #43, .T. ) ;
#26 = AXIS2_PLACEMENT_3D ( 'NONE', #196, #32, #41 ) ;
#27 = CALENDAR_DATE ( 2021, 13, 10 ) ;
#28 = CARTESIAN_POINT ( 'NONE',  ( 0.0000000000000000000, 0.0000000000000000000, 0.0000000000000000000 ) ) ;
#29 = EDGE_LOOP ( 'NONE', ( #189 ) ) ;
#30 = EDGE_CURVE ( 'NONE', #217, #217, #120, .T. ) ;
#31 = EDGE_LOOP ( 'NONE', ( #249 ) ) ;
#32 = DIRECTION ( 'NONE',  ( -3.491481338843133355E-15, 4.327174794786742882E-16, -1.000000000000000000 ) ) ;
#33 =( NAMED_UNIT ( * ) SI_UNIT ( $, .STERADIAN. ) SOLID_ANGLE_UNIT ( ) );
#34 = DIRECTION ( 'NONE',  ( -3.491481338843133355E-15, 1.224646799147353207E-16, -1.000000000000000000 ) ) ;
#35 = DIRECTION ( 'NONE',  ( 0.0000000000000000000, 0.0000000000000000000, 1.000000000000000000 ) ) ;
#36 = DIRECTION ( 'NONE',  ( -3.491481338843133355E-15, 4.327174794786742882E-16, -1.000000000000000000 ) ) ;
#37 = LOCAL_TIME ( 14, 57, 29.00000000000000000, #199 ) ;
#38 = FACE_OUTER_BOUND ( 'NONE', #29, .T. ) ;
#39 = CC_DESIGN_PERSON_AND_ORGANIZATION_ASSIGNMENT ( #250, #66, ( #110 ) ) ;
#40 = DATE_TIME_ROLE ( 'classification_date' ) ;
#41 = DIRECTION ( 'NONE',  ( 0.0000000000000000000, 1.000000000000000000, 0.0000000000000000000 ) ) ;
#42 = APPROVAL_PERSON_ORGANIZATION ( #109, #47, #242 ) ;
#43 = EDGE_CURVE ( 'NONE', #184, #184, #1, .T. ) ;
#44 = PERSON_AND_ORGANIZATION_ROLE ( 'creator' ) ;
#45 = CALENDAR_DATE ( 2021, 13, 10 ) ;
#46 = CIRCLE ( 'NONE', #194, 0.7000000000000016209 ) ;
#47 = APPROVAL ( #2, 'UNSPECIFIED' ) ;
#48 = EDGE_LOOP ( 'NONE', ( #172 ) ) ;
#49 = AXIS2_PLACEMENT_3D ( 'NONE', #191, #253, #160 ) ;
#50 = SECURITY_CLASSIFICATION_LEVEL ( 'unclassified' ) ;
#51 = CARTESIAN_POINT ( 'NONE',  ( 3.756421592396555761E-14, -4.655529059363920460E-15, 10.75881904510252163 ) ) ;
#52 = CARTESIAN_POINT ( 'NONE',  ( 1.731774744066194397E-13, -6.074248123770872657E-15, 49.60000000000000853 ) ) ;
#53 = APPROVAL_ROLE ( '' ) ;
#54 = CARTESIAN_POINT ( 'NONE',  ( 8.895566965843799999E-16, -3.120144876653167567E-17, 0.2547791639863455360 ) ) ;
#55 = CYLINDRICAL_SURFACE ( 'NONE', #223, 0.7000000000000016209 ) ;
#56 = VERTEX_POINT ( 'NONE', #140 ) ;
#57 = CALENDAR_DATE ( 2021, 13, 10 ) ;
#58 = UNCERTAINTY_MEASURE_WITH_UNIT (LENGTH_MEASURE( 1.000000000000000082E-05 ), #6, 'distance_accuracy_value', 'NONE');
#59 = PLANE ( 'NONE',  #193 ) ;
#60 = CARTESIAN_POINT ( 'NONE',  ( 1.731774744066194397E-13, 1.499999999999994893, 49.60000000000000853 ) ) ;
#61 = COORDINATED_UNIVERSAL_TIME_OFFSET ( 1, 0, .AHEAD. ) ;
#62 = MECHANICAL_CONTEXT ( 'NONE', #123, 'mechanical' ) ;
#63 = EDGE_LOOP ( 'NONE', ( #101 ) ) ;
#64 = CONICAL_SURFACE ( 'NONE', #126, 1.499999999999985789, 1.221730476396026610 ) ;
#65 = ORIENTED_EDGE ( 'NONE', *, *, #30, .T. ) ;
#66 = PERSON_AND_ORGANIZATION_ROLE ( 'creator' ) ;
#67 = LOCAL_TIME ( 14, 57, 29.00000000000000000, #107 ) ;
#68 = EDGE_LOOP ( 'NONE', ( #8 ) ) ;
#69 = CONICAL_SURFACE ( 'NONE', #168, 1.100000000000000977, 0.7853981633974512766 ) ;
#70 = FACE_OUTER_BOUND ( 'NONE', #68, .T. ) ;
#71 = DIRECTION ( 'NONE',  ( -3.491481338843133355E-15, 1.224646799147353207E-16, -1.000000000000000000 ) ) ;
#72 = FACE_OUTER_BOUND ( 'NONE', #153, .T. ) ;
#73 = FACE_OUTER_BOUND ( 'NONE', #84, .T. ) ;
#74 = DIRECTION ( 'NONE',  ( 3.491481338843133355E-15, -1.224646799147353207E-16, 1.000000000000000000 ) ) ;
#75 = CONICAL_SURFACE ( 'NONE', #210, 1.999999999999997113, 0.2617993877991504625 ) ;
#76 = CC_DESIGN_SECURITY_CLASSIFICATION ( #150, ( #110 ) ) ;
#77 = CARTESIAN_POINT ( 'NONE',  ( 4.754452489658417670E-14, -1.500000000000000666, 13.61729314364245447 ) ) ;
#78 = DIRECTION ( 'NONE',  ( 3.491481338843133355E-15, -4.327174794786742882E-16, 1.000000000000000000 ) ) ;
#79 = DIRECTION ( 'NONE',  ( -5.502656983963518247E-31, -1.000000000000000000, -1.548860246407859885E-16 ) ) ;
#80 = LOCAL_TIME ( 14, 57, 29.00000000000000000, #61 ) ;
#81 = ADVANCED_FACE ( 'NONE', ( #178, #111 ), #255, .T. ) ;
#82 = PERSON_AND_ORGANIZATION ( #131, #151 ) ;
#83 = EDGE_LOOP ( 'NONE', ( #226 ) ) ;
#84 = EDGE_LOOP ( 'NONE', ( #248 ) ) ;
#85 = PRODUCT_RELATED_PRODUCT_CATEGORY ( 'detail', '', ( #129 ) ) ;
#86 = DIRECTION ( 'NONE',  ( 1.000000000000000000, 0.0000000000000000000, 0.0000000000000000000 ) ) ;
#87 = DIRECTION ( 'NONE',  ( 0.0000000000000000000, 1.000000000000000000, 0.0000000000000000000 ) ) ;
#88 = CIRCLE ( 'NONE', #169, 1.499999999999994893 ) ;
#89 = EDGE_LOOP ( 'NONE', ( #115 ) ) ;
#90 = CIRCLE ( 'NONE', #103, 0.7000000000000016209 ) ;
#91 = CC_DESIGN_PERSON_AND_ORGANIZATION_ASSIGNMENT ( #204, #213, ( #129 ) ) ;
#92 = DIRECTION ( 'NONE',  ( -3.491481338843133355E-15, 4.327174794786742882E-16, -1.000000000000000000 ) ) ;
#93 = DIRECTION ( 'NONE',  ( 0.0000000000000000000, 1.000000000000000000, 0.0000000000000000000 ) ) ;
#94 = COORDINATED_UNIVERSAL_TIME_OFFSET ( 1, 0, .AHEAD. ) ;
#95 = DIRECTION ( 'NONE',  ( -3.491481338843133355E-15, 1.224646799147353207E-16, -1.000000000000000000 ) ) ;
#96 =( GEOMETRIC_REPRESENTATION_CONTEXT ( 3 ) GLOBAL_UNCERTAINTY_ASSIGNED_CONTEXT ( ( #58 ) ) GLOBAL_UNIT_ASSIGNED_CONTEXT ( ( #6, #192, #33 ) ) REPRESENTATION_CONTEXT ( 'NONE', 'WORKASPACE' ) );
#97 = PERSON_AND_ORGANIZATION ( #131, #151 ) ;
#98 = CARTESIAN_POINT ( 'NONE',  ( 1.745740669421566678E-13, 8.248678804640133367E-33, 50.00000000000000000 ) ) ;
#99 = DIRECTION ( 'NONE',  ( 4.275831445896958607E-31, 1.000000000000000000, 1.224646799147353207E-16 ) ) ;
#100 = APPROVAL_STATUS ( 'not_yet_approved' ) ;
#101 = ORIENTED_EDGE ( 'NONE', *, *, #166, .T. ) ;
#102 = DATE_AND_TIME ( #27, #67 ) ;
#103 = AXIS2_PLACEMENT_3D ( 'NONE', #54, #215, #79 ) ;
#104 = EDGE_LOOP ( 'NONE', ( #65 ) ) ;
#105 = CC_DESIGN_PERSON_AND_ORGANIZATION_ASSIGNMENT ( #15, #143, ( #150 ) ) ;
#106 = CARTESIAN_POINT ( 'NONE',  ( 0.0000000000000000000, 0.0000000000000000000, 0.0000000000000000000 ) ) ;
#107 = COORDINATED_UNIVERSAL_TIME_OFFSET ( 1, 0, .AHEAD. ) ;
#108 = FACE_BOUND ( 'NONE', #209, .T. ) ;
#109 = PERSON_AND_ORGANIZATION ( #131, #151 ) ;
#110 = PRODUCT_DEFINITION_FORMATION_WITH_SPECIFIED_SOURCE ( 'ANY', '', #129, .NOT_KNOWN. ) ;
#111 = FACE_OUTER_BOUND ( 'NONE', #48, .T. ) ;
#112 = CLOSED_SHELL ( 'NONE', ( #146, #179, #244, #135, #222, #21, #154 ) ) ;
#113 = CALENDAR_DATE ( 2021, 13, 10 ) ;
#114 = ADVANCED_BREP_SHAPE_REPRESENTATION ( '960482', ( #164, #163, #11 ), #96 ) ;
#115 = ORIENTED_EDGE ( 'NONE', *, *, #43, .F. ) ;
#116 = APPROVAL_DATE_TIME ( #256, #185 ) ;
#117 = DIRECTION ( 'NONE',  ( 1.510825004591027855E-30, 1.000000000000000000, 4.327174794786742389E-16 ) ) ;
#118 = DESIGN_CONTEXT ( 'detailed design', #187, 'design' ) ;
#119 = CARTESIAN_POINT ( 'NONE',  ( 3.666055405785290023E-14, 0.6999999999999987343, 10.50000000000000000 ) ) ;
#120 = CIRCLE ( 'NONE', #26, 0.7000000000000032863 ) ;
#121 = FACE_BOUND ( 'NONE', #89, .T. ) ;
#122 = DIRECTION ( 'NONE',  ( 0.0000000000000000000, -1.000000000000000000, 0.0000000000000000000 ) ) ;
#123 = APPLICATION_CONTEXT ( 'configuration controlled 3d designs of mechanical parts and assemblies' ) ;
#124 = COORDINATED_UNIVERSAL_TIME_OFFSET ( 1, 0, .AHEAD. ) ;
#125 = ORIENTED_EDGE ( 'NONE', *, *, #198, .F. ) ;
#126 = AXIS2_PLACEMENT_3D ( 'NONE', #22, #239, #201 ) ;
#127 = EDGE_LOOP ( 'NONE', ( #228 ) ) ;
#128 = ORIENTED_EDGE ( 'NONE', *, *, #198, .T. ) ;
#129 = PRODUCT ( '960482', '960482', '', ( #62 ) ) ;
#130 = PRODUCT_DEFINITION ( 'UNKNOWN', '', #110, #118 ) ;
#131 = PERSON ( 'UNSPECIFIED', 'UNSPECIFIED', 'UNSPECIFIED', ('UNSPECIFIED'), ('UNSPECIFIED'), ('UNSPECIFIED') ) ;
#132 = LOCAL_TIME ( 14, 57, 29.00000000000000000, #94 ) ;
#133 = EDGE_LOOP ( 'NONE', ( #246 ) ) ;
#134 = PERSON_AND_ORGANIZATION_ROLE ( 'design_supplier' ) ;
#135 = ADVANCED_FACE ( 'NONE', ( #139, #38 ), #55, .T. ) ;
#136 = DIRECTION ( 'NONE',  ( -3.491481338843133355E-15, 4.327174794786742882E-16, -1.000000000000000000 ) ) ;
#137 = CARTESIAN_POINT ( 'NONE',  ( 3.177248018347251984E-14, -3.937729063255936180E-15, 9.099999999999999645 ) ) ;
#138 = DIRECTION ( 'NONE',  ( -4.275831445896958607E-31, -1.000000000000000000, -1.224646799147353207E-16 ) ) ;
#139 = FACE_OUTER_BOUND ( 'NONE', #104, .T. ) ;
#140 = CARTESIAN_POINT ( 'NONE',  ( 3.177248018347251984E-14, -0.7000000000000055067, 9.099999999999999645 ) ) ;
#141 = AXIS2_PLACEMENT_3D ( 'NONE', #231, #36, #157 ) ;
#142 = CLOSED_SHELL ( 'NONE', ( #235, #81, #232 ) ) ;
#143 = PERSON_AND_ORGANIZATION_ROLE ( 'classification_officer' ) ;
#144 = CARTESIAN_POINT ( 'NONE',  ( 5.405971777170476389E-14, -6.699902575807973621E-15, 15.48331854742689373 ) ) ;
#145 = VERTEX_POINT ( 'NONE', #158 ) ;
#146 = ADVANCED_FACE ( 'NONE', ( #212, #190 ), #14, .T. ) ;
#147 = CARTESIAN_POINT ( 'NONE',  ( 3.177248018347251984E-14, -0.7000000000000055067, 9.099999999999999645 ) ) ;
#148 = DATE_AND_TIME ( #211, #80 ) ;
#149 = APPROVAL_ROLE ( '' ) ;
#150 = SECURITY_CLASSIFICATION ( '', '', #50 ) ;
#151 = ORGANIZATION ( 'UNSPECIFIED', 'UNSPECIFIED', '' ) ;
#152 = APPROVAL ( #100, 'UNSPECIFIED' ) ;
#153 = EDGE_LOOP ( 'NONE', ( #25 ) ) ;
#154 = ADVANCED_FACE ( 'NONE', ( #197 ), #17, .F. ) ;
#155 = PERSON_AND_ORGANIZATION ( #131, #151 ) ;
#156 = AXIS2_PLACEMENT_3D ( 'NONE', #241, #74, #200 ) ;
#157 = DIRECTION ( 'NONE',  ( 1.550166181484745478E-30, 1.000000000000000000, 4.327174794786742882E-16 ) ) ;
#158 = CARTESIAN_POINT ( 'NONE',  ( 1.745740669421566678E-13, 1.099999999999994760, 50.00000000000000000 ) ) ;
#159 = CARTESIAN_POINT ( 'NONE',  ( 0.0000000000000000000, 0.0000000000000000000, 0.0000000000000000000 ) ) ;
#160 = DIRECTION ( 'NONE',  ( 0.0000000000000000000, 1.000000000000000000, 0.0000000000000000000 ) ) ;
#161 = DIRECTION ( 'NONE',  ( 1.510825004591027855E-30, 1.000000000000000000, 4.327174794786742389E-16 ) ) ;
#162 = CC_DESIGN_PERSON_AND_ORGANIZATION_ASSIGNMENT ( #229, #134, ( #110 ) ) ;
#163 = MANIFOLD_SOLID_BREP ( 'Corps-Déplacer/Copier1[2]', #142 ) ;
#164 = MANIFOLD_SOLID_BREP ( 'Corps-Déplacer/Copier1[1]', #112 ) ;
#165 = APPROVAL_STATUS ( 'not_yet_approved' ) ;
#166 = EDGE_CURVE ( 'NONE', #263, #263, #219, .T. ) ;
#167 = FACE_OUTER_BOUND ( 'NONE', #133, .T. ) ;
#168 = AXIS2_PLACEMENT_3D ( 'NONE', #236, #214, #7 ) ;
#169 = AXIS2_PLACEMENT_3D ( 'NONE', #175, #234, #180 ) ;
#170 = PLANE ( 'NONE',  #156 ) ;
#171 = CC_DESIGN_APPROVAL ( #185, ( #150 ) ) ;
#172 = ORIENTED_EDGE ( 'NONE', *, *, #220, .F. ) ;
#173 = ORIENTED_EDGE ( 'NONE', *, *, #5, .T. ) ;
#174 = APPLICATION_PROTOCOL_DEFINITION ( 'international standard', 'config_control_design', 1994, #187 ) ;
#175 = CARTESIAN_POINT ( 'NONE',  ( 4.754452489658417670E-14, -5.892440766439196077E-15, 13.61729314364245447 ) ) ;
#176 = AXIS2_PLACEMENT_3D ( 'NONE', #106, #136, #161 ) ;
#177 = CARTESIAN_POINT ( 'NONE',  ( 3.177248018347251984E-14, -3.937729063255936180E-15, 9.099999999999999645 ) ) ;
#178 = FACE_OUTER_BOUND ( 'NONE', #31, .T. ) ;
#179 = ADVANCED_FACE ( 'NONE', ( #73, #108 ), #69, .T. ) ;
#180 = DIRECTION ( 'NONE',  ( 0.0000000000000000000, -1.000000000000000000, 0.0000000000000000000 ) ) ;
#181 = CARTESIAN_POINT ( 'NONE',  ( 3.177248018347251984E-14, 1.124819836996383079E-32, 9.099999999999999645 ) ) ;
#182 = FACE_OUTER_BOUND ( 'NONE', #207, .T. ) ;
#183 = APPROVAL_PERSON_ORGANIZATION ( #97, #185, #53 ) ;
#184 = VERTEX_POINT ( 'NONE', #19 ) ;
#185 = APPROVAL ( #165, 'UNSPECIFIED' ) ;
#186 = VERTEX_POINT ( 'NONE', #147 ) ;
#187 = APPLICATION_CONTEXT ( 'configuration controlled 3d designs of mechanical parts and assemblies' ) ;
#188 = CC_DESIGN_APPROVAL ( #47, ( #130 ) ) ;
#189 = ORIENTED_EDGE ( 'NONE', *, *, #205, .F. ) ;
#190 = FACE_OUTER_BOUND ( 'NONE', #63, .T. ) ;
#191 = CARTESIAN_POINT ( 'NONE',  ( 1.745740669421566678E-13, -6.123233995736766085E-15, 50.00000000000000000 ) ) ;
#192 =( NAMED_UNIT ( * ) PLANE_ANGLE_UNIT ( ) SI_UNIT ( $, .RADIAN. ) );
#193 = AXIS2_PLACEMENT_3D ( 'NONE', #98, #261, #99 ) ;
#194 = AXIS2_PLACEMENT_3D ( 'NONE', #137, #12, #254 ) ;
#195 = CARTESIAN_POINT ( 'NONE',  ( 0.0000000000000000000, 0.0000000000000000000, 0.0000000000000000000 ) ) ;
#196 = CARTESIAN_POINT ( 'NONE',  ( 3.666055405785290023E-14, -4.543533534526080026E-15, 10.50000000000000000 ) ) ;
#197 = FACE_OUTER_BOUND ( 'NONE', #224, .T. ) ;
#198 = EDGE_CURVE ( 'NONE', #145, #145, #238, .T. ) ;
#199 = COORDINATED_UNIVERSAL_TIME_OFFSET ( 1, 0, .AHEAD. ) ;
#200 = DIRECTION ( 'NONE',  ( -4.275831445896958607E-31, -1.000000000000000000, -1.224646799147353207E-16 ) ) ;
#201 = DIRECTION ( 'NONE',  ( -5.135813185032677695E-31, -1.000000000000000000, -1.445602896647352968E-16 ) ) ;
#202 = CC_DESIGN_PERSON_AND_ORGANIZATION_ASSIGNMENT ( #155, #44, ( #130 ) ) ;
#203 = DATE_TIME_ROLE ( 'creation_date' ) ;
#204 = PERSON_AND_ORGANIZATION ( #131, #151 ) ;
#205 = EDGE_CURVE ( 'NONE', #186, #186, #46, .T. ) ;
#206 = AXIS2_PLACEMENT_3D ( 'NONE', #181, #258, #138 ) ;
#207 = EDGE_LOOP ( 'NONE', ( #125 ) ) ;
#208 = APPROVAL_DATE_TIME ( #102, #152 ) ;
#209 = EDGE_LOOP ( 'NONE', ( #128 ) ) ;
#210 = AXIS2_PLACEMENT_3D ( 'NONE', #144, #78, #122 ) ;
#211 = CALENDAR_DATE ( 2021, 13, 10 ) ;
#212 = FACE_OUTER_BOUND ( 'NONE', #4, .T. ) ;
#213 = PERSON_AND_ORGANIZATION_ROLE ( 'design_owner' ) ;
#214 = DIRECTION ( 'NONE',  ( -3.491481338843133355E-15, 1.224646799147353207E-16, -1.000000000000000000 ) ) ;
#215 = DIRECTION ( 'NONE',  ( -3.491481338843133355E-15, 1.224646799147353207E-16, -1.000000000000000000 ) ) ;
#216 = DIRECTION ( 'NONE',  ( -3.491481338843133355E-15, 4.327174794786742882E-16, -1.000000000000000000 ) ) ;
#217 = VERTEX_POINT ( 'NONE', #119 ) ;
#218 = AXIS2_PLACEMENT_3D ( 'NONE', #52, #34, #87 ) ;
#219 = CIRCLE ( 'NONE', #218, 1.500000000000000888 ) ;
#220 = EDGE_CURVE ( 'NONE', #24, #24, #90, .T. ) ;
#221 = APPROVAL_DATE_TIME ( #148, #47 ) ;
#222 = ADVANCED_FACE ( 'NONE', ( #121, #20 ), #75, .T. ) ;
#223 = AXIS2_PLACEMENT_3D ( 'NONE', #159, #216, #117 ) ;
#224 = EDGE_LOOP ( 'NONE', ( #3 ) ) ;
#225 = AXIS2_PLACEMENT_3D ( 'NONE', #51, #92, #93 ) ;
#226 = ORIENTED_EDGE ( 'NONE', *, *, #5, .F. ) ;
#227 = CC_DESIGN_DATE_AND_TIME_ASSIGNMENT ( #13, #40, ( #150 ) ) ;
#228 = ORIENTED_EDGE ( 'NONE', *, *, #16, .F. ) ;
#229 = PERSON_AND_ORGANIZATION ( #131, #151 ) ;
#230 = CIRCLE ( 'NONE', #262, 0.7000000000000016209 ) ;
#231 = CARTESIAN_POINT ( 'NONE',  ( 3.666055405785290023E-14, -4.553649124439118623E-15, 10.50000000000000000 ) ) ;
#232 = ADVANCED_FACE ( 'NONE', ( #259 ), #170, .T. ) ;
#233 = DIRECTION ( 'NONE',  ( 4.275831445896958607E-31, 1.000000000000000000, 1.224646799147353207E-16 ) ) ;
#234 = DIRECTION ( 'NONE',  ( 3.491481338843133355E-15, -4.327174794786742882E-16, 1.000000000000000000 ) ) ;
#235 = ADVANCED_FACE ( 'NONE', ( #167 ), #64, .T. ) ;
#236 = CARTESIAN_POINT ( 'NONE',  ( 1.745740669421566678E-13, -6.123233995736766085E-15, 50.00000000000000000 ) ) ;
#237 = SHAPE_DEFINITION_REPRESENTATION ( #257, #114 ) ;
#238 = CIRCLE ( 'NONE', #49, 1.100000000000000977 ) ;
#239 = DIRECTION ( 'NONE',  ( 3.491481338843133355E-15, -1.224646799147353207E-16, 1.000000000000000000 ) ) ;
#240 = CC_DESIGN_DATE_AND_TIME_ASSIGNMENT ( #247, #203, ( #130 ) ) ;
#241 = CARTESIAN_POINT ( 'NONE',  ( 3.177248018347251984E-14, 1.124819836996383079E-32, 9.099999999999999645 ) ) ;
#242 = APPROVAL_ROLE ( '' ) ;
#243 = LOCAL_TIME ( 14, 57, 29.00000000000000000, #124 ) ;
#244 = ADVANCED_FACE ( 'NONE', ( #182 ), #59, .F. ) ;
#245 = APPLICATION_PROTOCOL_DEFINITION ( 'international standard', 'config_control_design', 1994, #123 ) ;
#246 = ORIENTED_EDGE ( 'NONE', *, *, #220, .T. ) ;
#247 = DATE_AND_TIME ( #45, #243 ) ;
#248 = ORIENTED_EDGE ( 'NONE', *, *, #166, .F. ) ;
#249 = ORIENTED_EDGE ( 'NONE', *, *, #16, .T. ) ;
#250 = PERSON_AND_ORGANIZATION ( #131, #151 ) ;
#251 = DIRECTION ( 'NONE',  ( 0.0000000000000000000, -1.000000000000000000, 0.0000000000000000000 ) ) ;
#252 = TOROIDAL_SURFACE ( 'NONE', #141, 1.700000000000003286, 1.000000000000000000 ) ;
#253 = DIRECTION ( 'NONE',  ( -3.491481338843133355E-15, 1.224646799147353207E-16, -1.000000000000000000 ) ) ;
#254 = DIRECTION ( 'NONE',  ( 0.0000000000000000000, -1.000000000000000000, 0.0000000000000000000 ) ) ;
#255 = CYLINDRICAL_SURFACE ( 'NONE', #176, 0.7000000000000016209 ) ;
#256 = DATE_AND_TIME ( #113, #132 ) ;
#257 = PRODUCT_DEFINITION_SHAPE ( 'NONE', 'NONE',  #130 ) ;
#258 = DIRECTION ( 'NONE',  ( 3.491481338843133355E-15, -1.224646799147353207E-16, 1.000000000000000000 ) ) ;
#259 = FACE_OUTER_BOUND ( 'NONE', #127, .T. ) ;
#260 = APPROVAL_PERSON_ORGANIZATION ( #82, #152, #149 ) ;
#261 = DIRECTION ( 'NONE',  ( -3.491481338843133355E-15, 1.224646799147353207E-16, -1.000000000000000000 ) ) ;
#262 = AXIS2_PLACEMENT_3D ( 'NONE', #177, #95, #251 ) ;
#263 = VERTEX_POINT ( 'NONE', #60 ) ;
ENDSEC;
END-ISO-10303-21;
