ISO-10303-21;
HEADER;
FILE_DESCRIPTION (( 'STEP AP203' ),
    '1' );
FILE_NAME ('960481.step',
    '2021-10-13T12:57:28',
    ( '' ),
    ( '' ),
    'SwSTEP 2.0',
    'SolidWorks 2019',
    '' );
FILE_SCHEMA (( 'CONFIG_CONTROL_DESIGN' ));
ENDSEC;

DATA;
#1 = EDGE_LOOP ( 'NONE', ( #146 ) ) ;
#2 = AXIS2_PLACEMENT_3D ( 'NONE', #208, #19, #65 ) ;
#3 = CONICAL_SURFACE ( 'NONE', #117, 1.999999999999997113, 0.2617993877991502960 ) ;
#4 = DIRECTION ( 'NONE',  ( -3.491481338843133355E-15, 4.327174794786742882E-16, -1.000000000000000000 ) ) ;
#5 = DIRECTION ( 'NONE',  ( -5.135813185032677695E-31, -1.000000000000000000, -1.445602896647352968E-16 ) ) ;
#6 = DIRECTION ( 'NONE',  ( 0.0000000000000000000, 1.000000000000000000, 0.0000000000000000000 ) ) ;
#7 = CARTESIAN_POINT ( 'NONE',  ( 5.226720012202665324E-14, -6.477746521109781977E-15, 14.96992108780534103 ) ) ;
#8 = DIRECTION ( 'NONE',  ( 4.275831445896958607E-31, 1.000000000000000000, 1.224646799147352961E-16 ) ) ;
#9 = AXIS2_PLACEMENT_3D ( 'NONE', #235, #51, #213 ) ;
#10 = CARTESIAN_POINT ( 'NONE',  ( 3.512017898677536426E-14, 0.6840741737109303777, 10.05881904510252234 ) ) ;
#11 = EDGE_CURVE ( 'NONE', #175, #175, #52, .T. ) ;
#12 = PERSON_AND_ORGANIZATION ( #18, #29 ) ;
#13 = PERSON_AND_ORGANIZATION ( #18, #29 ) ;
#14 = DIRECTION ( 'NONE',  ( -3.491481338843133355E-15, 4.327174794786742882E-16, -1.000000000000000000 ) ) ;
#15 = AXIS2_PLACEMENT_3D ( 'NONE', #53, #109, #24 ) ;
#16 = DIRECTION ( 'NONE',  ( 0.0000000000000000000, -1.000000000000000000, 0.0000000000000000000 ) ) ;
#17 = EDGE_CURVE ( 'NONE', #112, #112, #40, .T. ) ;
#18 = PERSON ( 'UNSPECIFIED', 'UNSPECIFIED', 'UNSPECIFIED', ('UNSPECIFIED'), ('UNSPECIFIED'), ('UNSPECIFIED') ) ;
#19 = DIRECTION ( 'NONE',  ( -3.491481338843133355E-15, 4.327174794786742882E-16, -1.000000000000000000 ) ) ;
#20 = PRODUCT ( '960481', '960481', '', ( #205 ) ) ;
#21 = EDGE_LOOP ( 'NONE', ( #170 ) ) ;
#22 = FACE_OUTER_BOUND ( 'NONE', #141, .T. ) ;
#23 = CARTESIAN_POINT ( 'NONE',  ( 2.967759138016663352E-14, 1.124819836996382806E-32, 8.500000000000000000 ) ) ;
#24 = DIRECTION ( 'NONE',  ( 0.0000000000000000000, 1.000000000000000000, 0.0000000000000000000 ) ) ;
#25 = CARTESIAN_POINT ( 'NONE',  ( 1.731774744066194397E-13, 1.499999999999994893, 49.60000000000000853 ) ) ;
#26 = CC_DESIGN_DATE_AND_TIME_ASSIGNMENT ( #100, #143, ( #147 ) ) ;
#27 =( LENGTH_UNIT ( ) NAMED_UNIT ( * ) SI_UNIT ( .MILLI., .METRE. ) );
#28 = FACE_BOUND ( 'NONE', #1, .T. ) ;
#29 = ORGANIZATION ( 'UNSPECIFIED', 'UNSPECIFIED', '' ) ;
#30 = DIRECTION ( 'NONE',  ( 1.000000000000000000, 0.0000000000000000000, 0.0000000000000000000 ) ) ;
#31 = AXIS2_PLACEMENT_3D ( 'NONE', #190, #248, #16 ) ;
#32 = CIRCLE ( 'NONE', #242, 0.6840741737109347076 ) ;
#33 = DATE_TIME_ROLE ( 'classification_date' ) ;
#34 = APPROVAL_ROLE ( '' ) ;
#35 = PERSON_AND_ORGANIZATION_ROLE ( 'creator' ) ;
#36 = CALENDAR_DATE ( 2021, 13, 10 ) ;
#37 = EDGE_LOOP ( 'NONE', ( #149 ) ) ;
#38 = EDGE_CURVE ( 'NONE', #253, #253, #133, .T. ) ;
#39 = ORIENTED_EDGE ( 'NONE', *, *, #230, .T. ) ;
#40 = CIRCLE ( 'NONE', #31, 0.6500000000000014655 ) ;
#41 = AXIS2_PLACEMENT_3D ( 'NONE', #195, #197, #194 ) ;
#42 = EDGE_LOOP ( 'NONE', ( #260 ) ) ;
#43 = DIRECTION ( 'NONE',  ( 1.510825004591028030E-30, 1.000000000000000000, 4.327174794786742882E-16 ) ) ;
#44 = CARTESIAN_POINT ( 'NONE',  ( 1.745740669421566678E-13, -6.123233995736766085E-15, 50.00000000000000000 ) ) ;
#45 = LOCAL_TIME ( 14, 57, 28.00000000000000000, #115 ) ;
#46 = DIRECTION ( 'NONE',  ( 0.0000000000000000000, -1.000000000000000000, 0.0000000000000000000 ) ) ;
#47 = AXIS2_PLACEMENT_3D ( 'NONE', #23, #172, #198 ) ;
#48 = FACE_OUTER_BOUND ( 'NONE', #37, .T. ) ;
#49 = DIRECTION ( 'NONE',  ( 0.0000000000000000000, -1.000000000000000000, 0.0000000000000000000 ) ) ;
#50 = APPROVAL ( #140, 'UNSPECIFIED' ) ;
#51 = DIRECTION ( 'NONE',  ( -3.491481338843133355E-15, 1.224646799147353207E-16, -1.000000000000000000 ) ) ;
#52 = CIRCLE ( 'NONE', #68, 1.500000000000000888 ) ;
#53 = CARTESIAN_POINT ( 'NONE',  ( 1.745740669421566678E-13, -6.123233995736766085E-15, 50.00000000000000000 ) ) ;
#54 = PERSON_AND_ORGANIZATION ( #18, #29 ) ;
#55 = EDGE_LOOP ( 'NONE', ( #122 ) ) ;
#56 = CALENDAR_DATE ( 2021, 13, 10 ) ;
#57 = AXIS2_PLACEMENT_3D ( 'NONE', #89, #136, #8 ) ;
#58 = PERSON_AND_ORGANIZATION ( #18, #29 ) ;
#59 = ORIENTED_EDGE ( 'NONE', *, *, #189, .T. ) ;
#60 = APPROVAL_STATUS ( 'not_yet_approved' ) ;
#61 = PERSON_AND_ORGANIZATION ( #18, #29 ) ;
#62 = CARTESIAN_POINT ( 'NONE',  ( 2.967759138016663352E-14, 1.124819836996382806E-32, 8.500000000000000000 ) ) ;
#63 = FACE_OUTER_BOUND ( 'NONE', #185, .T. ) ;
#64 = CARTESIAN_POINT ( 'NONE',  ( 1.731774744066194397E-13, -6.074248123770872657E-15, 49.60000000000000853 ) ) ;
#65 = DIRECTION ( 'NONE',  ( 1.510825004591028030E-30, 1.000000000000000000, 4.327174794786742882E-16 ) ) ;
#66 = CARTESIAN_POINT ( 'NONE',  ( 4.575200724690605343E-14, -1.500000000000000222, 13.10389568402090177 ) ) ;
#67 = PRODUCT_DEFINITION_FORMATION_WITH_SPECIFIED_SOURCE ( 'ANY', '', #20, .NOT_KNOWN. ) ;
#68 = AXIS2_PLACEMENT_3D ( 'NONE', #64, #126, #206 ) ;
#69 = VERTEX_POINT ( 'NONE', #66 ) ;
#70 = CARTESIAN_POINT ( 'NONE',  ( 2.967759138016663352E-14, -0.6500000000000051292, 8.500000000000000000 ) ) ;
#71 = DESIGN_CONTEXT ( 'detailed design', #159, 'design' ) ;
#72 = FACE_OUTER_BOUND ( 'NONE', #207, .T. ) ;
#73 = CC_DESIGN_APPROVAL ( #203, ( #147 ) ) ;
#74 = LOCAL_TIME ( 14, 57, 28.00000000000000000, #239 ) ;
#75 = APPLICATION_PROTOCOL_DEFINITION ( 'international standard', 'config_control_design', 1994, #254 ) ;
#76 = ADVANCED_FACE ( 'NONE', ( #22, #82 ), #168, .T. ) ;
#77 = PERSON_AND_ORGANIZATION ( #18, #29 ) ;
#78 = CC_DESIGN_SECURITY_CLASSIFICATION ( #179, ( #67 ) ) ;
#79 = EDGE_LOOP ( 'NONE', ( #59 ) ) ;
#80 = AXIS2_PLACEMENT_3D ( 'NONE', #92, #86, #46 ) ;
#81 = FACE_OUTER_BOUND ( 'NONE', #79, .T. ) ;
#82 = FACE_OUTER_BOUND ( 'NONE', #55, .T. ) ;
#83 = DIRECTION ( 'NONE',  ( -3.491481338843133355E-15, 1.224646799147353207E-16, -1.000000000000000000 ) ) ;
#84 = PRODUCT_DEFINITION_SHAPE ( 'NONE', 'NONE',  #147 ) ;
#85 = EDGE_LOOP ( 'NONE', ( #244 ) ) ;
#86 = DIRECTION ( 'NONE',  ( 3.491481338843133355E-15, -4.327174794786742882E-16, 1.000000000000000000 ) ) ;
#87 = ADVANCED_FACE ( 'NONE', ( #81, #108 ), #209, .T. ) ;
#88 = AXIS2_PLACEMENT_3D ( 'NONE', #107, #192, #5 ) ;
#89 = CARTESIAN_POINT ( 'NONE',  ( 0.0000000000000000000, 0.0000000000000000000, 0.0000000000000000000 ) ) ;
#90 = AXIS2_PLACEMENT_3D ( 'NONE', #44, #132, #6 ) ;
#91 = VERTEX_POINT ( 'NONE', #217 ) ;
#92 = CARTESIAN_POINT ( 'NONE',  ( 4.575200724690605343E-14, -5.670284711741003644E-15, 13.10389568402090177 ) ) ;
#93 = CC_DESIGN_APPROVAL ( #50, ( #179 ) ) ;
#94 = CC_DESIGN_PERSON_AND_ORGANIZATION_ASSIGNMENT ( #224, #35, ( #67 ) ) ;
#95 = APPROVAL_ROLE ( '' ) ;
#96 = CC_DESIGN_PERSON_AND_ORGANIZATION_ASSIGNMENT ( #218, #263, ( #147 ) ) ;
#97 = ADVANCED_FACE ( 'NONE', ( #186 ), #105, .F. ) ;
#98 = APPROVAL_STATUS ( 'not_yet_approved' ) ;
#99 = CLOSED_SHELL ( 'NONE', ( #106, #87, #237 ) ) ;
#100 = DATE_AND_TIME ( #36, #45 ) ;
#101 = ORIENTED_EDGE ( 'NONE', *, *, #187, .T. ) ;
#102 = CC_DESIGN_APPROVAL ( #250, ( #67 ) ) ;
#103 = CIRCLE ( 'NONE', #80, 1.499999999999994671 ) ;
#104 = ORIENTED_EDGE ( 'NONE', *, *, #17, .T. ) ;
#105 = PLANE ( 'NONE',  #116 ) ;
#106 = ADVANCED_FACE ( 'NONE', ( #63 ), #127, .T. ) ;
#107 = CARTESIAN_POINT ( 'NONE',  ( 1.906192921252219839E-15, -6.686024735685277809E-17, 0.5459553513993053997 ) ) ;
#108 = FACE_OUTER_BOUND ( 'NONE', #131, .T. ) ;
#109 = DIRECTION ( 'NONE',  ( -3.491481338843133355E-15, 1.224646799147353207E-16, -1.000000000000000000 ) ) ;
#110 = FACE_OUTER_BOUND ( 'NONE', #129, .T. ) ;
#111 = VERTEX_POINT ( 'NONE', #10 ) ;
#112 = VERTEX_POINT ( 'NONE', #70 ) ;
#113 = CC_DESIGN_PERSON_AND_ORGANIZATION_ASSIGNMENT ( #13, #162, ( #20 ) ) ;
#114 = PLANE ( 'NONE',  #47 ) ;
#115 = COORDINATED_UNIVERSAL_TIME_OFFSET ( 1, 0, .AHEAD. ) ;
#116 = AXIS2_PLACEMENT_3D ( 'NONE', #191, #83, #169 ) ;
#117 = AXIS2_PLACEMENT_3D ( 'NONE', #7, #234, #177 ) ;
#118 = PRODUCT_RELATED_PRODUCT_CATEGORY ( 'detail', '', ( #20 ) ) ;
#119 = DATE_AND_TIME ( #200, #202 ) ;
#120 = LOCAL_TIME ( 14, 57, 28.00000000000000000, #123 ) ;
#121 = APPROVAL_DATE_TIME ( #142, #250 ) ;
#122 = ORIENTED_EDGE ( 'NONE', *, *, #17, .F. ) ;
#123 = COORDINATED_UNIVERSAL_TIME_OFFSET ( 1, 0, .AHEAD. ) ;
#124 = EDGE_LOOP ( 'NONE', ( #193 ) ) ;
#125 = APPROVAL_PERSON_ORGANIZATION ( #58, #50, #34 ) ;
#126 = DIRECTION ( 'NONE',  ( -3.491481338843133355E-15, 1.224646799147353207E-16, -1.000000000000000000 ) ) ;
#127 = CONICAL_SURFACE ( 'NONE', #88, 1.499999999999985789, 1.221730476396026610 ) ;
#128 = CONICAL_SURFACE ( 'NONE', #90, 1.100000000000000977, 0.7853981633974512766 ) ;
#129 = EDGE_LOOP ( 'NONE', ( #148 ) ) ;
#130 = ADVANCED_FACE ( 'NONE', ( #150, #231 ), #128, .T. ) ;
#131 = EDGE_LOOP ( 'NONE', ( #220 ) ) ;
#132 = DIRECTION ( 'NONE',  ( -3.491481338843133355E-15, 1.224646799147353207E-16, -1.000000000000000000 ) ) ;
#133 = CIRCLE ( 'NONE', #144, 0.6500000000000029088 ) ;
#134 = CARTESIAN_POINT ( 'NONE',  ( 2.967759138016663352E-14, -3.678098575568731450E-15, 8.500000000000000000 ) ) ;
#135 = CYLINDRICAL_SURFACE ( 'NONE', #57, 1.499999999999994671 ) ;
#136 = DIRECTION ( 'NONE',  ( -3.491481338843133355E-15, 1.224646799147353207E-16, -1.000000000000000000 ) ) ;
#137 = CALENDAR_DATE ( 2021, 13, 10 ) ;
#138 = ADVANCED_FACE ( 'NONE', ( #165 ), #247, .F. ) ;
#139 = AXIS2_PLACEMENT_3D ( 'NONE', #134, #171, #49 ) ;
#140 = APPROVAL_STATUS ( 'not_yet_approved' ) ;
#141 = EDGE_LOOP ( 'NONE', ( #227 ) ) ;
#142 = DATE_AND_TIME ( #223, #151 ) ;
#143 = DATE_TIME_ROLE ( 'creation_date' ) ;
#144 = AXIS2_PLACEMENT_3D ( 'NONE', #166, #4, #211 ) ;
#145 = DIRECTION ( 'NONE',  ( 3.491481338843133355E-15, -1.224646799147353207E-16, 1.000000000000000000 ) ) ;
#146 = ORIENTED_EDGE ( 'NONE', *, *, #196, .F. ) ;
#147 = PRODUCT_DEFINITION ( 'UNKNOWN', '', #67, #71 ) ;
#148 = ORIENTED_EDGE ( 'NONE', *, *, #189, .F. ) ;
#149 = ORIENTED_EDGE ( 'NONE', *, *, #11, .T. ) ;
#150 = FACE_OUTER_BOUND ( 'NONE', #124, .T. ) ;
#151 = LOCAL_TIME ( 14, 57, 28.00000000000000000, #245 ) ;
#152 = CARTESIAN_POINT ( 'NONE',  ( 3.421651712066271319E-14, 0.6499999999999986899, 9.800000000000000711 ) ) ;
#153 = CIRCLE ( 'NONE', #139, 0.6500000000000014655 ) ;
#154 = CARTESIAN_POINT ( 'NONE',  ( 3.512017898677536426E-14, -4.352626823728848931E-15, 10.05881904510252234 ) ) ;
#155 = VERTEX_POINT ( 'NONE', #215 ) ;
#156 = CARTESIAN_POINT ( 'NONE',  ( 8.260169325426382474E-16, -0.6500000000000014655, 0.2365806522730350414 ) ) ;
#157 = CC_DESIGN_PERSON_AND_ORGANIZATION_ASSIGNMENT ( #77, #182, ( #179 ) ) ;
#158 =( NAMED_UNIT ( * ) SI_UNIT ( $, .STERADIAN. ) SOLID_ANGLE_UNIT ( ) );
#159 = APPLICATION_CONTEXT ( 'configuration controlled 3d designs of mechanical parts and assemblies' ) ;
#160 = APPROVAL_ROLE ( '' ) ;
#161 = CIRCLE ( 'NONE', #15, 1.100000000000000977 ) ;
#162 = PERSON_AND_ORGANIZATION_ROLE ( 'design_owner' ) ;
#163 = SHAPE_DEFINITION_REPRESENTATION ( #84, #262 ) ;
#164 = ADVANCED_FACE ( 'NONE', ( #28, #232 ), #3, .T. ) ;
#165 = FACE_OUTER_BOUND ( 'NONE', #246, .T. ) ;
#166 = CARTESIAN_POINT ( 'NONE',  ( 3.421651712066271319E-14, -4.240631298891008498E-15, 9.800000000000000711 ) ) ;
#167 = CC_DESIGN_DATE_AND_TIME_ASSIGNMENT ( #257, #33, ( #179 ) ) ;
#168 = CYLINDRICAL_SURFACE ( 'NONE', #233, 0.6500000000000014655 ) ;
#169 = DIRECTION ( 'NONE',  ( 4.275831445896958607E-31, 1.000000000000000000, 1.224646799147353207E-16 ) ) ;
#170 = ORIENTED_EDGE ( 'NONE', *, *, #38, .F. ) ;
#171 = DIRECTION ( 'NONE',  ( -3.491481338843133355E-15, 1.224646799147353207E-16, -1.000000000000000000 ) ) ;
#172 = DIRECTION ( 'NONE',  ( 3.491481338843133355E-15, -1.224646799147353207E-16, 1.000000000000000000 ) ) ;
#173 = CLOSED_SHELL ( 'NONE', ( #243, #130, #97, #76, #164, #210, #138 ) ) ;
#174 = CIRCLE ( 'NONE', #9, 0.6500000000000014655 ) ;
#175 = VERTEX_POINT ( 'NONE', #25 ) ;
#176 = UNCERTAINTY_MEASURE_WITH_UNIT (LENGTH_MEASURE( 1.000000000000000082E-05 ), #27, 'distance_accuracy_value', 'NONE');
#177 = DIRECTION ( 'NONE',  ( 0.0000000000000000000, -1.000000000000000000, 0.0000000000000000000 ) ) ;
#178 =( NAMED_UNIT ( * ) PLANE_ANGLE_UNIT ( ) SI_UNIT ( $, .RADIAN. ) );
#179 = SECURITY_CLASSIFICATION ( '', '', #181 ) ;
#180 = MANIFOLD_SOLID_BREP ( 'Corps-Déplacer/Copier1[2]', #99 ) ;
#181 = SECURITY_CLASSIFICATION_LEVEL ( 'unclassified' ) ;
#182 = PERSON_AND_ORGANIZATION_ROLE ( 'classification_officer' ) ;
#183 = APPROVAL_DATE_TIME ( #225, #203 ) ;
#184 = PERSON_AND_ORGANIZATION_ROLE ( 'design_supplier' ) ;
#185 = EDGE_LOOP ( 'NONE', ( #39 ) ) ;
#186 = FACE_OUTER_BOUND ( 'NONE', #229, .T. ) ;
#187 = EDGE_CURVE ( 'NONE', #69, #69, #103, .T. ) ;
#188 = TOROIDAL_SURFACE ( 'NONE', #41, 1.650000000000003020, 1.000000000000000000 ) ;
#189 = EDGE_CURVE ( 'NONE', #155, #155, #153, .T. ) ;
#190 = CARTESIAN_POINT ( 'NONE',  ( 2.967759138016663352E-14, -3.678098575568731450E-15, 8.500000000000000000 ) ) ;
#191 = CARTESIAN_POINT ( 'NONE',  ( 1.745740669421566678E-13, 8.248678804640133367E-33, 50.00000000000000000 ) ) ;
#192 = DIRECTION ( 'NONE',  ( 3.491481338843133355E-15, -1.224646799147353207E-16, 1.000000000000000000 ) ) ;
#193 = ORIENTED_EDGE ( 'NONE', *, *, #11, .F. ) ;
#194 = DIRECTION ( 'NONE',  ( 1.550908467841230773E-30, 1.000000000000000000, 4.327174794786742389E-16 ) ) ;
#195 = CARTESIAN_POINT ( 'NONE',  ( 3.421651712066271319E-14, -4.336808689942017736E-15, 9.800000000000000711 ) ) ;
#196 = EDGE_CURVE ( 'NONE', #111, #111, #32, .T. ) ;
#197 = DIRECTION ( 'NONE',  ( -3.491481338843133355E-15, 4.327174794786742882E-16, -1.000000000000000000 ) ) ;
#198 = DIRECTION ( 'NONE',  ( -4.275831445896958607E-31, -1.000000000000000000, -1.224646799147353207E-16 ) ) ;
#199 = APPROVAL_PERSON_ORGANIZATION ( #12, #250, #95 ) ;
#200 = CALENDAR_DATE ( 2021, 13, 10 ) ;
#201 = APPROVAL_DATE_TIME ( #119, #50 ) ;
#202 = LOCAL_TIME ( 14, 57, 28.00000000000000000, #238 ) ;
#203 = APPROVAL ( #98, 'UNSPECIFIED' ) ;
#204 = EDGE_CURVE ( 'NONE', #91, #91, #161, .T. ) ;
#205 = MECHANICAL_CONTEXT ( 'NONE', #254, 'mechanical' ) ;
#206 = DIRECTION ( 'NONE',  ( 0.0000000000000000000, 1.000000000000000000, 0.0000000000000000000 ) ) ;
#207 = EDGE_LOOP ( 'NONE', ( #101 ) ) ;
#208 = CARTESIAN_POINT ( 'NONE',  ( 0.0000000000000000000, 0.0000000000000000000, 0.0000000000000000000 ) ) ;
#209 = CYLINDRICAL_SURFACE ( 'NONE', #2, 0.6500000000000014655 ) ;
#210 = ADVANCED_FACE ( 'NONE', ( #255, #212 ), #188, .F. ) ;
#211 = DIRECTION ( 'NONE',  ( 0.0000000000000000000, 1.000000000000000000, 0.0000000000000000000 ) ) ;
#212 = FACE_OUTER_BOUND ( 'NONE', #251, .T. ) ;
#213 = DIRECTION ( 'NONE',  ( -4.444453717816688354E-31, -1.000000000000000000, -1.251002506714040828E-16 ) ) ;
#214 = CC_DESIGN_PERSON_AND_ORGANIZATION_ASSIGNMENT ( #54, #184, ( #67 ) ) ;
#215 = CARTESIAN_POINT ( 'NONE',  ( 2.967759138016663352E-14, -0.6500000000000051292, 8.500000000000000000 ) ) ;
#216 = DIRECTION ( 'NONE',  ( -3.491481338843133355E-15, 4.327174794786742882E-16, -1.000000000000000000 ) ) ;
#217 = CARTESIAN_POINT ( 'NONE',  ( 1.745740669421566678E-13, 1.099999999999994760, 50.00000000000000000 ) ) ;
#218 = PERSON_AND_ORGANIZATION ( #18, #29 ) ;
#219 = AXIS2_PLACEMENT_3D ( 'NONE', #259, #261, #30 ) ;
#220 = ORIENTED_EDGE ( 'NONE', *, *, #230, .F. ) ;
#221 =( GEOMETRIC_REPRESENTATION_CONTEXT ( 3 ) GLOBAL_UNCERTAINTY_ASSIGNED_CONTEXT ( ( #176 ) ) GLOBAL_UNIT_ASSIGNED_CONTEXT ( ( #27, #178, #158 ) ) REPRESENTATION_CONTEXT ( 'NONE', 'WORKASPACE' ) );
#222 = APPLICATION_PROTOCOL_DEFINITION ( 'international standard', 'config_control_design', 1994, #159 ) ;
#223 = CALENDAR_DATE ( 2021, 13, 10 ) ;
#224 = PERSON_AND_ORGANIZATION ( #18, #29 ) ;
#225 = DATE_AND_TIME ( #137, #74 ) ;
#226 = DIRECTION ( 'NONE',  ( -4.275831445896958607E-31, -1.000000000000000000, -1.224646799147353207E-16 ) ) ;
#227 = ORIENTED_EDGE ( 'NONE', *, *, #38, .T. ) ;
#228 = CARTESIAN_POINT ( 'NONE',  ( 0.0000000000000000000, 0.0000000000000000000, 0.0000000000000000000 ) ) ;
#229 = EDGE_LOOP ( 'NONE', ( #249 ) ) ;
#230 = EDGE_CURVE ( 'NONE', #256, #256, #174, .T. ) ;
#231 = FACE_BOUND ( 'NONE', #85, .T. ) ;
#232 = FACE_OUTER_BOUND ( 'NONE', #42, .T. ) ;
#233 = AXIS2_PLACEMENT_3D ( 'NONE', #228, #14, #43 ) ;
#234 = DIRECTION ( 'NONE',  ( 3.491481338843133355E-15, -4.327174794786742882E-16, 1.000000000000000000 ) ) ;
#235 = CARTESIAN_POINT ( 'NONE',  ( 8.260169325426385432E-16, -2.897277385463654938E-17, 0.2365806522730351247 ) ) ;
#236 = DIRECTION ( 'NONE',  ( 0.0000000000000000000, 1.000000000000000000, 0.0000000000000000000 ) ) ;
#237 = ADVANCED_FACE ( 'NONE', ( #110 ), #114, .T. ) ;
#238 = COORDINATED_UNIVERSAL_TIME_OFFSET ( 1, 0, .AHEAD. ) ;
#239 = COORDINATED_UNIVERSAL_TIME_OFFSET ( 1, 0, .AHEAD. ) ;
#240 = APPROVAL_PERSON_ORGANIZATION ( #61, #203, #160 ) ;
#241 = AXIS2_PLACEMENT_3D ( 'NONE', #62, #145, #226 ) ;
#242 = AXIS2_PLACEMENT_3D ( 'NONE', #154, #216, #236 ) ;
#243 = ADVANCED_FACE ( 'NONE', ( #72, #48 ), #135, .T. ) ;
#244 = ORIENTED_EDGE ( 'NONE', *, *, #204, .T. ) ;
#245 = COORDINATED_UNIVERSAL_TIME_OFFSET ( 1, 0, .AHEAD. ) ;
#246 = EDGE_LOOP ( 'NONE', ( #104 ) ) ;
#247 = PLANE ( 'NONE',  #241 ) ;
#248 = DIRECTION ( 'NONE',  ( -3.491481338843133355E-15, 1.224646799147353207E-16, -1.000000000000000000 ) ) ;
#249 = ORIENTED_EDGE ( 'NONE', *, *, #204, .F. ) ;
#250 = APPROVAL ( #60, 'UNSPECIFIED' ) ;
#251 = EDGE_LOOP ( 'NONE', ( #252 ) ) ;
#252 = ORIENTED_EDGE ( 'NONE', *, *, #196, .T. ) ;
#253 = VERTEX_POINT ( 'NONE', #152 ) ;
#254 = APPLICATION_CONTEXT ( 'configuration controlled 3d designs of mechanical parts and assemblies' ) ;
#255 = FACE_OUTER_BOUND ( 'NONE', #21, .T. ) ;
#256 = VERTEX_POINT ( 'NONE', #156 ) ;
#257 = DATE_AND_TIME ( #56, #120 ) ;
#258 = MANIFOLD_SOLID_BREP ( 'Corps-Déplacer/Copier1[1]', #173 ) ;
#259 = CARTESIAN_POINT ( 'NONE',  ( 0.0000000000000000000, 0.0000000000000000000, 0.0000000000000000000 ) ) ;
#260 = ORIENTED_EDGE ( 'NONE', *, *, #187, .F. ) ;
#261 = DIRECTION ( 'NONE',  ( 0.0000000000000000000, 0.0000000000000000000, 1.000000000000000000 ) ) ;
#262 = ADVANCED_BREP_SHAPE_REPRESENTATION ( '960481', ( #258, #180, #219 ), #221 ) ;
#263 = PERSON_AND_ORGANIZATION_ROLE ( 'creator' ) ;
ENDSEC;
END-ISO-10303-21;
