ISO-10303-21;
HEADER;
FILE_DESCRIPTION (( 'STEP AP203' ),
    '1' );
FILE_NAME ('960480.step',
    '2021-10-13T12:57:28',
    ( '' ),
    ( '' ),
    'SwSTEP 2.0',
    'SolidWorks 2019',
    '' );
FILE_SCHEMA (( 'CONFIG_CONTROL_DESIGN' ));
ENDSEC;

DATA;
#1 = DIRECTION ( 'NONE',  ( 3.491481338843133355E-15, -4.327174794786742882E-16, 1.000000000000000000 ) ) ;
#2 = LOCAL_TIME ( 14, 57, 28.00000000000000000, #66 ) ;
#3 = ORIENTED_EDGE ( 'NONE', *, *, #81, .F. ) ;
#4 = EDGE_LOOP ( 'NONE', ( #252 ) ) ;
#5 = APPROVAL_STATUS ( 'not_yet_approved' ) ;
#6 = APPROVAL_ROLE ( '' ) ;
#7 = CC_DESIGN_PERSON_AND_ORGANIZATION_ASSIGNMENT ( #14, #87, ( #29 ) ) ;
#8 = AXIS2_PLACEMENT_3D ( 'NONE', #183, #261, #109 ) ;
#9 = APPLICATION_PROTOCOL_DEFINITION ( 'international standard', 'config_control_design', 1994, #206 ) ;
#10 = EDGE_LOOP ( 'NONE', ( #78 ) ) ;
#11 = CYLINDRICAL_SURFACE ( 'NONE', #119, 1.499999999999994449 ) ;
#12 = CARTESIAN_POINT ( 'NONE',  ( 3.142333204958820020E-14, -3.894457315308067805E-15, 9.000000000000000000 ) ) ;
#13 = ORIENTED_EDGE ( 'NONE', *, *, #17, .T. ) ;
#14 = PERSON_AND_ORGANIZATION ( #221, #227 ) ;
#15 = DESIGN_CONTEXT ( 'detailed design', #187, 'design' ) ;
#16 = APPROVAL_PERSON_ORGANIZATION ( #163, #192, #105 ) ;
#17 = EDGE_CURVE ( 'NONE', #158, #158, #194, .T. ) ;
#18 = DIRECTION ( 'NONE',  ( -4.814824860968079123E-31, -1.000000000000000000, -1.355252715606877584E-16 ) ) ;
#19 = FACE_OUTER_BOUND ( 'NONE', #254, .T. ) ;
#20 = APPROVAL_STATUS ( 'not_yet_approved' ) ;
#21 = PLANE ( 'NONE',  #220 ) ;
#22 = AXIS2_PLACEMENT_3D ( 'NONE', #258, #83, #162 ) ;
#23 = CIRCLE ( 'NONE', #210, 1.499999999999994449 ) ;
#24 = FACE_OUTER_BOUND ( 'NONE', #37, .T. ) ;
#25 = ADVANCED_FACE ( 'NONE', ( #56, #142 ), #112, .F. ) ;
#26 = AXIS2_PLACEMENT_3D ( 'NONE', #124, #195, #160 ) ;
#27 = EDGE_CURVE ( 'NONE', #229, #229, #92, .T. ) ;
#28 = CIRCLE ( 'NONE', #55, 0.6000000000000013101 ) ;
#29 = PRODUCT_DEFINITION_FORMATION_WITH_SPECIFIED_SOURCE ( 'ANY', '', #134, .NOT_KNOWN. ) ;
#30 = CARTESIAN_POINT ( 'NONE',  ( 1.731774744066194397E-13, 1.499999999999994893, 49.60000000000000853 ) ) ;
#31 = EDGE_LOOP ( 'NONE', ( #152 ) ) ;
#32 = DIRECTION ( 'NONE',  ( -3.491481338843133355E-15, 1.224646799147353207E-16, -1.000000000000000000 ) ) ;
#33 = EDGE_CURVE ( 'NONE', #170, #170, #249, .T. ) ;
#34 = EDGE_LOOP ( 'NONE', ( #3 ) ) ;
#35 = DIRECTION ( 'NONE',  ( 3.491481338843133355E-15, -4.327174794786742882E-16, 1.000000000000000000 ) ) ;
#36 = CONICAL_SURFACE ( 'NONE', #150, 1.999999999999996669, 0.2617993877991502960 ) ;
#37 = EDGE_LOOP ( 'NONE', ( #76 ) ) ;
#38 = CARTESIAN_POINT ( 'NONE',  ( 2.723355444297644017E-14, -0.6000000000000047518, 7.799999999999999822 ) ) ;
#39 = CARTESIAN_POINT ( 'NONE',  ( 3.232699391570084495E-14, -4.006452840145909027E-15, 9.258819045102519851 ) ) ;
#40 = CARTESIAN_POINT ( 'NONE',  ( 7.624771685008970865E-16, -2.674409894274143233E-17, 0.2183821405597247689 ) ) ;
#41 = CARTESIAN_POINT ( 'NONE',  ( 2.723355444297644017E-14, -3.375196339933659527E-15, 7.799999999999999822 ) ) ;
#42 = DIRECTION ( 'NONE',  ( -3.491481338843133355E-15, 1.224646799147353207E-16, -1.000000000000000000 ) ) ;
#43 = ADVANCED_FACE ( 'NONE', ( #122, #236 ), #141, .T. ) ;
#44 = FACE_OUTER_BOUND ( 'NONE', #98, .T. ) ;
#45 = CALENDAR_DATE ( 2021, 13, 10 ) ;
#46 = AXIS2_PLACEMENT_3D ( 'NONE', #41, #144, #202 ) ;
#47 = CC_DESIGN_APPROVAL ( #67, ( #257 ) ) ;
#48 = DIRECTION ( 'NONE',  ( 3.491481338843133355E-15, -1.224646799147353207E-16, 1.000000000000000000 ) ) ;
#49 =( GEOMETRIC_REPRESENTATION_CONTEXT ( 3 ) GLOBAL_UNCERTAINTY_ASSIGNED_CONTEXT ( ( #107 ) ) GLOBAL_UNIT_ASSIGNED_CONTEXT ( ( #79, #137, #118 ) ) REPRESENTATION_CONTEXT ( 'NONE', 'WORKASPACE' ) );
#50 = ORIENTED_EDGE ( 'NONE', *, *, #81, .T. ) ;
#51 = CARTESIAN_POINT ( 'NONE',  ( 3.232699391570084495E-14, 0.6340741737109306664, 9.258819045102519851 ) ) ;
#52 = VERTEX_POINT ( 'NONE', #38 ) ;
#53 = ADVANCED_FACE ( 'NONE', ( #86, #103 ), #214, .T. ) ;
#54 = DIRECTION ( 'NONE',  ( 0.0000000000000000000, 0.0000000000000000000, 1.000000000000000000 ) ) ;
#55 = AXIS2_PLACEMENT_3D ( 'NONE', #231, #42, #104 ) ;
#56 = FACE_OUTER_BOUND ( 'NONE', #71, .T. ) ;
#57 = VERTEX_POINT ( 'NONE', #138 ) ;
#58 = PRODUCT_DEFINITION ( 'UNKNOWN', '', #29, #15 ) ;
#59 = CARTESIAN_POINT ( 'NONE',  ( 1.745740669421566678E-13, -6.123233995736766085E-15, 50.00000000000000000 ) ) ;
#60 = ORIENTED_EDGE ( 'NONE', *, *, #17, .F. ) ;
#61 = PERSON_AND_ORGANIZATION_ROLE ( 'classification_officer' ) ;
#62 = DIRECTION ( 'NONE',  ( -3.491481338843133355E-15, 1.224646799147353207E-16, -1.000000000000000000 ) ) ;
#63 = PERSON_AND_ORGANIZATION ( #221, #227 ) ;
#64 = CC_DESIGN_PERSON_AND_ORGANIZATION_ASSIGNMENT ( #211, #230, ( #134 ) ) ;
#65 = FACE_OUTER_BOUND ( 'NONE', #88, .T. ) ;
#66 = COORDINATED_UNIVERSAL_TIME_OFFSET ( 1, 0, .AHEAD. ) ;
#67 = APPROVAL ( #20, 'UNSPECIFIED' ) ;
#68 = CIRCLE ( 'NONE', #73, 1.500000000000000888 ) ;
#69 = LOCAL_TIME ( 14, 57, 28.00000000000000000, #157 ) ;
#70 = CARTESIAN_POINT ( 'NONE',  ( 2.723355444297644017E-14, -0.6000000000000047518, 7.799999999999999822 ) ) ;
#71 = EDGE_LOOP ( 'NONE', ( #60 ) ) ;
#72 = CARTESIAN_POINT ( 'NONE',  ( 1.731774744066194397E-13, -6.074248123770872657E-15, 49.60000000000000853 ) ) ;
#73 = AXIS2_PLACEMENT_3D ( 'NONE', #72, #99, #153 ) ;
#74 = LOCAL_TIME ( 14, 57, 28.00000000000000000, #243 ) ;
#75 = CC_DESIGN_PERSON_AND_ORGANIZATION_ASSIGNMENT ( #63, #181, ( #29 ) ) ;
#76 = ORIENTED_EDGE ( 'NONE', *, *, #27, .T. ) ;
#77 = CARTESIAN_POINT ( 'NONE',  ( 7.624771685008967906E-16, -0.6000000000000013101, 0.2183821405597246856 ) ) ;
#78 = ORIENTED_EDGE ( 'NONE', *, *, #208, .T. ) ;
#79 =( LENGTH_UNIT ( ) NAMED_UNIT ( * ) SI_UNIT ( .MILLI., .METRE. ) );
#80 = DIRECTION ( 'NONE',  ( 4.275831445896957731E-31, 1.000000000000000000, 1.224646799147352961E-16 ) ) ;
#81 = EDGE_CURVE ( 'NONE', #140, #140, #89, .T. ) ;
#82 = ORIENTED_EDGE ( 'NONE', *, *, #251, .T. ) ;
#83 = DIRECTION ( 'NONE',  ( 3.491481338843133355E-15, -1.224646799147353207E-16, 1.000000000000000000 ) ) ;
#84 = COORDINATED_UNIVERSAL_TIME_OFFSET ( 1, 0, .AHEAD. ) ;
#85 = EDGE_CURVE ( 'NONE', #232, #232, #223, .T. ) ;
#86 = FACE_OUTER_BOUND ( 'NONE', #95, .T. ) ;
#87 = PERSON_AND_ORGANIZATION_ROLE ( 'design_supplier' ) ;
#88 = EDGE_LOOP ( 'NONE', ( #191 ) ) ;
#89 = CIRCLE ( 'NONE', #225, 1.100000000000000977 ) ;
#90 = DIRECTION ( 'NONE',  ( -3.491481338843133355E-15, 1.224646799147353207E-16, -1.000000000000000000 ) ) ;
#91 = CC_DESIGN_DATE_AND_TIME_ASSIGNMENT ( #108, #201, ( #257 ) ) ;
#92 = CIRCLE ( 'NONE', #46, 0.6000000000000013101 ) ;
#93 = ADVANCED_FACE ( 'NONE', ( #197 ), #21, .F. ) ;
#94 = FACE_OUTER_BOUND ( 'NONE', #120, .T. ) ;
#95 = EDGE_LOOP ( 'NONE', ( #13 ) ) ;
#96 = CALENDAR_DATE ( 2021, 13, 10 ) ;
#97 = EDGE_CURVE ( 'NONE', #52, #52, #28, .T. ) ;
#98 = EDGE_LOOP ( 'NONE', ( #226 ) ) ;
#99 = DIRECTION ( 'NONE',  ( -3.491481338843133355E-15, 1.224646799147353207E-16, -1.000000000000000000 ) ) ;
#100 = CC_DESIGN_SECURITY_CLASSIFICATION ( #257, ( #29 ) ) ;
#101 = DIRECTION ( 'NONE',  ( 0.0000000000000000000, -1.000000000000000000, 0.0000000000000000000 ) ) ;
#102 = ORIENTED_EDGE ( 'NONE', *, *, #33, .F. ) ;
#103 = FACE_OUTER_BOUND ( 'NONE', #4, .T. ) ;
#104 = DIRECTION ( 'NONE',  ( 0.0000000000000000000, -1.000000000000000000, 0.0000000000000000000 ) ) ;
#105 = APPROVAL_ROLE ( '' ) ;
#106 = CARTESIAN_POINT ( 'NONE',  ( 1.745740669421566678E-13, 8.248678804640133367E-33, 50.00000000000000000 ) ) ;
#107 = UNCERTAINTY_MEASURE_WITH_UNIT (LENGTH_MEASURE( 1.000000000000000082E-05 ), #79, 'distance_accuracy_value', 'NONE');
#108 = DATE_AND_TIME ( #149, #207 ) ;
#109 = DIRECTION ( 'NONE',  ( -5.135813185032677695E-31, -1.000000000000000000, -1.445602896647352968E-16 ) ) ;
#110 = APPROVAL_DATE_TIME ( #198, #244 ) ;
#111 = CARTESIAN_POINT ( 'NONE',  ( 2.723355444297644017E-14, 1.124819836996383079E-32, 7.799999999999999822 ) ) ;
#112 = TOROIDAL_SURFACE ( 'NONE', #159, 1.600000000000002975, 1.000000000000000000 ) ;
#113 = CC_DESIGN_PERSON_AND_ORGANIZATION_ASSIGNMENT ( #259, #161, ( #58 ) ) ;
#114 = CONICAL_SURFACE ( 'NONE', #8, 1.499999999999985789, 1.221730476396026610 ) ;
#115 = AXIS2_PLACEMENT_3D ( 'NONE', #193, #54, #168 ) ;
#116 = APPLICATION_PROTOCOL_DEFINITION ( 'international standard', 'config_control_design', 1994, #187 ) ;
#117 = EDGE_LOOP ( 'NONE', ( #82 ) ) ;
#118 =( NAMED_UNIT ( * ) SI_UNIT ( $, .STERADIAN. ) SOLID_ANGLE_UNIT ( ) );
#119 = AXIS2_PLACEMENT_3D ( 'NONE', #255, #32, #80 ) ;
#120 = EDGE_LOOP ( 'NONE', ( #248 ) ) ;
#121 = FACE_OUTER_BOUND ( 'NONE', #10, .T. ) ;
#122 = FACE_OUTER_BOUND ( 'NONE', #169, .T. ) ;
#123 = VERTEX_POINT ( 'NONE', #30 ) ;
#124 = CARTESIAN_POINT ( 'NONE',  ( 1.745740669421566678E-13, -6.123233995736766085E-15, 50.00000000000000000 ) ) ;
#125 = APPROVAL_DATE_TIME ( #217, #192 ) ;
#126 = FACE_BOUND ( 'NONE', #174, .T. ) ;
#127 = AXIS2_PLACEMENT_3D ( 'NONE', #40, #62, #18 ) ;
#128 = CC_DESIGN_APPROVAL ( #244, ( #58 ) ) ;
#129 = DIRECTION ( 'NONE',  ( 1.510825004591028205E-30, 1.000000000000000000, 4.327174794786742882E-16 ) ) ;
#130 = ADVANCED_FACE ( 'NONE', ( #131 ), #178, .T. ) ;
#131 = FACE_OUTER_BOUND ( 'NONE', #31, .T. ) ;
#132 = EDGE_LOOP ( 'NONE', ( #50 ) ) ;
#133 = SHAPE_DEFINITION_REPRESENTATION ( #186, #189 ) ;
#134 = PRODUCT ( '960480', '960480', '', ( #209 ) ) ;
#135 = ADVANCED_FACE ( 'NONE', ( #19 ), #114, .T. ) ;
#136 = EDGE_LOOP ( 'NONE', ( #250 ) ) ;
#137 =( NAMED_UNIT ( * ) PLANE_ANGLE_UNIT ( ) SI_UNIT ( $, .RADIAN. ) );
#138 = CARTESIAN_POINT ( 'NONE',  ( 4.361034146334358527E-14, -1.499999999999999778, 12.49049822439934054 ) ) ;
#139 = CC_DESIGN_PERSON_AND_ORGANIZATION_ASSIGNMENT ( #203, #61, ( #257 ) ) ;
#140 = VERTEX_POINT ( 'NONE', #253 ) ;
#141 = CONICAL_SURFACE ( 'NONE', #26, 1.100000000000000977, 0.7853981633974512766 ) ;
#142 = FACE_OUTER_BOUND ( 'NONE', #136, .T. ) ;
#143 = ADVANCED_FACE ( 'NONE', ( #44, #65 ), #147, .T. ) ;
#144 = DIRECTION ( 'NONE',  ( -3.491481338843133355E-15, 1.224646799147353207E-16, -1.000000000000000000 ) ) ;
#145 = PERSON_AND_ORGANIZATION ( #221, #227 ) ;
#146 = DIRECTION ( 'NONE',  ( 4.275831445896958607E-31, 1.000000000000000000, 1.224646799147353207E-16 ) ) ;
#147 = CYLINDRICAL_SURFACE ( 'NONE', #176, 0.6000000000000013101 ) ;
#148 = CALENDAR_DATE ( 2021, 13, 10 ) ;
#149 = CALENDAR_DATE ( 2021, 13, 10 ) ;
#150 = AXIS2_PLACEMENT_3D ( 'NONE', #224, #1, #167 ) ;
#151 = MANIFOLD_SOLID_BREP ( 'Corps-Déplacer/Copier1[2]', #199 ) ;
#152 = ORIENTED_EDGE ( 'NONE', *, *, #97, .F. ) ;
#153 = DIRECTION ( 'NONE',  ( 0.0000000000000000000, 1.000000000000000000, 0.0000000000000000000 ) ) ;
#154 = CC_DESIGN_APPROVAL ( #192, ( #29 ) ) ;
#155 = ORIENTED_EDGE ( 'NONE', *, *, #85, .T. ) ;
#156 = FACE_OUTER_BOUND ( 'NONE', #117, .T. ) ;
#157 = COORDINATED_UNIVERSAL_TIME_OFFSET ( 1, 0, .AHEAD. ) ;
#158 = VERTEX_POINT ( 'NONE', #172 ) ;
#159 = AXIS2_PLACEMENT_3D ( 'NONE', #212, #263, #216 ) ;
#160 = DIRECTION ( 'NONE',  ( 0.0000000000000000000, 1.000000000000000000, 0.0000000000000000000 ) ) ;
#161 = PERSON_AND_ORGANIZATION_ROLE ( 'creator' ) ;
#162 = DIRECTION ( 'NONE',  ( -4.275831445896958607E-31, -1.000000000000000000, -1.224646799147353207E-16 ) ) ;
#163 = PERSON_AND_ORGANIZATION ( #221, #227 ) ;
#164 = DIRECTION ( 'NONE',  ( -3.491481338843133355E-15, 4.327174794786742882E-16, -1.000000000000000000 ) ) ;
#165 = APPROVAL_ROLE ( '' ) ;
#166 = APPROVAL_PERSON_ORGANIZATION ( #145, #67, #165 ) ;
#167 = DIRECTION ( 'NONE',  ( 0.0000000000000000000, -1.000000000000000000, 0.0000000000000000000 ) ) ;
#168 = DIRECTION ( 'NONE',  ( 1.000000000000000000, 0.0000000000000000000, 0.0000000000000000000 ) ) ;
#169 = EDGE_LOOP ( 'NONE', ( #228 ) ) ;
#170 = VERTEX_POINT ( 'NONE', #51 ) ;
#171 = AXIS2_PLACEMENT_3D ( 'NONE', #12, #200, #239 ) ;
#172 = CARTESIAN_POINT ( 'NONE',  ( 3.142333204958820020E-14, 0.5999999999999988676, 9.000000000000000000 ) ) ;
#173 = DIRECTION ( 'NONE',  ( -4.275831445896958607E-31, -1.000000000000000000, -1.224646799147353207E-16 ) ) ;
#174 = EDGE_LOOP ( 'NONE', ( #102 ) ) ;
#175 = ADVANCED_FACE ( 'NONE', ( #126, #94 ), #36, .T. ) ;
#176 = AXIS2_PLACEMENT_3D ( 'NONE', #218, #185, #188 ) ;
#177 = LOCAL_TIME ( 14, 57, 28.00000000000000000, #84 ) ;
#178 = PLANE ( 'NONE',  #22 ) ;
#179 = CALENDAR_DATE ( 2021, 13, 10 ) ;
#180 = DIRECTION ( 'NONE',  ( -3.491481338843133355E-15, 4.327174794786742882E-16, -1.000000000000000000 ) ) ;
#181 = PERSON_AND_ORGANIZATION_ROLE ( 'creator' ) ;
#182 = ADVANCED_FACE ( 'NONE', ( #24 ), #222, .F. ) ;
#183 = CARTESIAN_POINT ( 'NONE',  ( 1.906192921252219839E-15, -6.686024735685277809E-17, 0.5459553513993053997 ) ) ;
#184 = AXIS2_PLACEMENT_3D ( 'NONE', #111, #48, #173 ) ;
#185 = DIRECTION ( 'NONE',  ( -3.491481338843133355E-15, 4.327174794786742882E-16, -1.000000000000000000 ) ) ;
#186 = PRODUCT_DEFINITION_SHAPE ( 'NONE', 'NONE',  #58 ) ;
#187 = APPLICATION_CONTEXT ( 'configuration controlled 3d designs of mechanical parts and assemblies' ) ;
#188 = DIRECTION ( 'NONE',  ( 1.510825004591028205E-30, 1.000000000000000000, 4.327174794786742882E-16 ) ) ;
#189 = ADVANCED_BREP_SHAPE_REPRESENTATION ( '960480', ( #235, #151, #115 ), #49 ) ;
#190 = PERSON_AND_ORGANIZATION ( #221, #227 ) ;
#191 = ORIENTED_EDGE ( 'NONE', *, *, #85, .F. ) ;
#192 = APPROVAL ( #237, 'UNSPECIFIED' ) ;
#193 = CARTESIAN_POINT ( 'NONE',  ( 0.0000000000000000000, 0.0000000000000000000, 0.0000000000000000000 ) ) ;
#194 = CIRCLE ( 'NONE', #171, 0.6000000000000027534 ) ;
#195 = DIRECTION ( 'NONE',  ( -3.491481338843133355E-15, 1.224646799147353207E-16, -1.000000000000000000 ) ) ;
#196 = CARTESIAN_POINT ( 'NONE',  ( 4.361034146334358527E-14, -5.404856909094939680E-15, 12.49049822439934054 ) ) ;
#197 = FACE_OUTER_BOUND ( 'NONE', #34, .T. ) ;
#198 = DATE_AND_TIME ( #96, #69 ) ;
#199 = CLOSED_SHELL ( 'NONE', ( #135, #143, #130 ) ) ;
#200 = DIRECTION ( 'NONE',  ( -3.491481338843133355E-15, 4.327174794786742882E-16, -1.000000000000000000 ) ) ;
#201 = DATE_TIME_ROLE ( 'classification_date' ) ;
#202 = DIRECTION ( 'NONE',  ( 0.0000000000000000000, -1.000000000000000000, 0.0000000000000000000 ) ) ;
#203 = PERSON_AND_ORGANIZATION ( #221, #227 ) ;
#204 = DIRECTION ( 'NONE',  ( 0.0000000000000000000, 1.000000000000000000, 0.0000000000000000000 ) ) ;
#205 = DATE_TIME_ROLE ( 'creation_date' ) ;
#206 = APPLICATION_CONTEXT ( 'configuration controlled 3d designs of mechanical parts and assemblies' ) ;
#207 = LOCAL_TIME ( 14, 57, 28.00000000000000000, #260 ) ;
#208 = EDGE_CURVE ( 'NONE', #123, #123, #68, .T. ) ;
#209 = MECHANICAL_CONTEXT ( 'NONE', #206, 'mechanical' ) ;
#210 = AXIS2_PLACEMENT_3D ( 'NONE', #196, #35, #101 ) ;
#211 = PERSON_AND_ORGANIZATION ( #221, #227 ) ;
#212 = CARTESIAN_POINT ( 'NONE',  ( 3.142333204958820020E-14, -3.903127820947815962E-15, 9.000000000000000000 ) ) ;
#213 = DIRECTION ( 'NONE',  ( -3.491481338843133355E-15, 1.224646799147353207E-16, -1.000000000000000000 ) ) ;
#214 = CYLINDRICAL_SURFACE ( 'NONE', #262, 0.6000000000000013101 ) ;
#215 = SECURITY_CLASSIFICATION_LEVEL ( 'unclassified' ) ;
#216 = DIRECTION ( 'NONE',  ( 1.551679303672965521E-30, 1.000000000000000000, 4.327174794786743375E-16 ) ) ;
#217 = DATE_AND_TIME ( #179, #2 ) ;
#218 = CARTESIAN_POINT ( 'NONE',  ( 0.0000000000000000000, 0.0000000000000000000, 0.0000000000000000000 ) ) ;
#219 = APPROVAL_DATE_TIME ( #240, #67 ) ;
#220 = AXIS2_PLACEMENT_3D ( 'NONE', #106, #90, #146 ) ;
#221 = PERSON ( 'UNSPECIFIED', 'UNSPECIFIED', 'UNSPECIFIED', ('UNSPECIFIED'), ('UNSPECIFIED'), ('UNSPECIFIED') ) ;
#222 = PLANE ( 'NONE',  #184 ) ;
#223 = CIRCLE ( 'NONE', #127, 0.6000000000000013101 ) ;
#224 = CARTESIAN_POINT ( 'NONE',  ( 5.012553433846417877E-14, -6.212318718463718013E-15, 14.35652362818377981 ) ) ;
#225 = AXIS2_PLACEMENT_3D ( 'NONE', #59, #213, #204 ) ;
#226 = ORIENTED_EDGE ( 'NONE', *, *, #97, .T. ) ;
#227 = ORGANIZATION ( 'UNSPECIFIED', 'UNSPECIFIED', '' ) ;
#228 = ORIENTED_EDGE ( 'NONE', *, *, #208, .F. ) ;
#229 = VERTEX_POINT ( 'NONE', #70 ) ;
#230 = PERSON_AND_ORGANIZATION_ROLE ( 'design_owner' ) ;
#231 = CARTESIAN_POINT ( 'NONE',  ( 2.723355444297644017E-14, -3.375196339933659527E-15, 7.799999999999999822 ) ) ;
#232 = VERTEX_POINT ( 'NONE', #77 ) ;
#233 = CLOSED_SHELL ( 'NONE', ( #238, #43, #93, #53, #175, #25, #182 ) ) ;
#234 = CARTESIAN_POINT ( 'NONE',  ( 0.0000000000000000000, 0.0000000000000000000, 0.0000000000000000000 ) ) ;
#235 = MANIFOLD_SOLID_BREP ( 'Corps-Déplacer/Copier1[1]', #233 ) ;
#236 = FACE_BOUND ( 'NONE', #132, .T. ) ;
#237 = APPROVAL_STATUS ( 'not_yet_approved' ) ;
#238 = ADVANCED_FACE ( 'NONE', ( #156, #121 ), #11, .T. ) ;
#239 = DIRECTION ( 'NONE',  ( 0.0000000000000000000, 1.000000000000000000, 0.0000000000000000000 ) ) ;
#240 = DATE_AND_TIME ( #45, #74 ) ;
#241 = AXIS2_PLACEMENT_3D ( 'NONE', #39, #180, #242 ) ;
#242 = DIRECTION ( 'NONE',  ( 0.0000000000000000000, 1.000000000000000000, 0.0000000000000000000 ) ) ;
#243 = COORDINATED_UNIVERSAL_TIME_OFFSET ( 1, 0, .AHEAD. ) ;
#244 = APPROVAL ( #5, 'UNSPECIFIED' ) ;
#245 = APPROVAL_PERSON_ORGANIZATION ( #190, #244, #6 ) ;
#246 = CC_DESIGN_DATE_AND_TIME_ASSIGNMENT ( #256, #205, ( #58 ) ) ;
#247 = PRODUCT_RELATED_PRODUCT_CATEGORY ( 'detail', '', ( #134 ) ) ;
#248 = ORIENTED_EDGE ( 'NONE', *, *, #251, .F. ) ;
#249 = CIRCLE ( 'NONE', #241, 0.6340741737109347742 ) ;
#250 = ORIENTED_EDGE ( 'NONE', *, *, #33, .T. ) ;
#251 = EDGE_CURVE ( 'NONE', #57, #57, #23, .T. ) ;
#252 = ORIENTED_EDGE ( 'NONE', *, *, #27, .F. ) ;
#253 = CARTESIAN_POINT ( 'NONE',  ( 1.745740669421566678E-13, 1.099999999999994760, 50.00000000000000000 ) ) ;
#254 = EDGE_LOOP ( 'NONE', ( #155 ) ) ;
#255 = CARTESIAN_POINT ( 'NONE',  ( 0.0000000000000000000, 0.0000000000000000000, 0.0000000000000000000 ) ) ;
#256 = DATE_AND_TIME ( #148, #177 ) ;
#257 = SECURITY_CLASSIFICATION ( '', '', #215 ) ;
#258 = CARTESIAN_POINT ( 'NONE',  ( 2.723355444297644017E-14, 1.124819836996383079E-32, 7.799999999999999822 ) ) ;
#259 = PERSON_AND_ORGANIZATION ( #221, #227 ) ;
#260 = COORDINATED_UNIVERSAL_TIME_OFFSET ( 1, 0, .AHEAD. ) ;
#261 = DIRECTION ( 'NONE',  ( 3.491481338843133355E-15, -1.224646799147353207E-16, 1.000000000000000000 ) ) ;
#262 = AXIS2_PLACEMENT_3D ( 'NONE', #234, #164, #129 ) ;
#263 = DIRECTION ( 'NONE',  ( -3.491481338843133355E-15, 4.327174794786742882E-16, -1.000000000000000000 ) ) ;
ENDSEC;
END-ISO-10303-21;
