ISO-10303-21;
HEADER;
FILE_DESCRIPTION (( 'STEP AP203' ),
    '1' );
FILE_NAME ('960479.step',
    '2021-10-13T12:57:27',
    ( '' ),
    ( '' ),
    'SwSTEP 2.0',
    'SolidWorks 2019',
    '' );
FILE_SCHEMA (( 'CONFIG_CONTROL_DESIGN' ));
ENDSEC;

DATA;
#1 = DIRECTION ( 'NONE',  ( 4.275831445896958607E-31, 1.000000000000000000, 1.224646799147353207E-16 ) ) ;
#2 = VERTEX_POINT ( 'NONE', #166 ) ;
#3 = AXIS2_PLACEMENT_3D ( 'NONE', #160, #31, #225 ) ;
#4 = DATE_AND_TIME ( #187, #92 ) ;
#5 = FACE_OUTER_BOUND ( 'NONE', #110, .T. ) ;
#6 = DIRECTION ( 'NONE',  ( 1.510825004591027679E-30, 1.000000000000000000, 4.327174794786742389E-16 ) ) ;
#7 = EDGE_LOOP ( 'NONE', ( #194 ) ) ;
#8 = CIRCLE ( 'NONE', #177, 1.500000000000000666 ) ;
#9 = ORIENTED_EDGE ( 'NONE', *, *, #61, .F. ) ;
#10 = APPROVAL_DATE_TIME ( #193, #203 ) ;
#11 = ORIENTED_EDGE ( 'NONE', *, *, #14, .T. ) ;
#12 = DATE_TIME_ROLE ( 'classification_date' ) ;
#13 = SECURITY_CLASSIFICATION ( '', '', #224 ) ;
#14 = EDGE_CURVE ( 'NONE', #204, #204, #55, .T. ) ;
#15 = PLANE ( 'NONE',  #105 ) ;
#16 = DIRECTION ( 'NONE',  ( 3.491481338843133355E-15, -4.327174794786742882E-16, 1.000000000000000000 ) ) ;
#17 = AXIS2_PLACEMENT_3D ( 'NONE', #116, #178, #235 ) ;
#18 = EDGE_LOOP ( 'NONE', ( #9 ) ) ;
#19 = CARTESIAN_POINT ( 'NONE',  ( 0.0000000000000000000, 0.0000000000000000000, 0.0000000000000000000 ) ) ;
#20 = ORIENTED_EDGE ( 'NONE', *, *, #149, .T. ) ;
#21 = FACE_OUTER_BOUND ( 'NONE', #18, .T. ) ;
#22 = APPLICATION_CONTEXT ( 'configuration controlled 3d designs of mechanical parts and assemblies' ) ;
#23 = ADVANCED_FACE ( 'NONE', ( #78 ), #134, .T. ) ;
#24 = PERSON_AND_ORGANIZATION ( #256, #125 ) ;
#25 = MANIFOLD_SOLID_BREP ( 'Corps-Déplacer/Copier1[2]', #222 ) ;
#26 = ADVANCED_FACE ( 'NONE', ( #236 ), #15, .F. ) ;
#27 = DIRECTION ( 'NONE',  ( 1.000000000000000000, 0.0000000000000000000, 0.0000000000000000000 ) ) ;
#28 = AXIS2_PLACEMENT_3D ( 'NONE', #220, #67, #207 ) ;
#29 = MANIFOLD_SOLID_BREP ( 'Corps-Déplacer/Copier1[1]', #209 ) ;
#30 = PRODUCT ( '960479', '960479', '', ( #188 ) ) ;
#31 = DIRECTION ( 'NONE',  ( -3.491481338843133355E-15, 1.224646799147353207E-16, -1.000000000000000000 ) ) ;
#32 = EDGE_LOOP ( 'NONE', ( #168 ) ) ;
#33 = CIRCLE ( 'NONE', #205, 0.5500000000000013767 ) ;
#34 = EDGE_LOOP ( 'NONE', ( #191 ) ) ;
#35 = EDGE_LOOP ( 'NONE', ( #169 ) ) ;
#36 = APPROVAL_ROLE ( '' ) ;
#37 = CC_DESIGN_APPROVAL ( #91, ( #76 ) ) ;
#38 = EDGE_LOOP ( 'NONE', ( #53 ) ) ;
#39 = FACE_OUTER_BOUND ( 'NONE', #189, .T. ) ;
#40 = FACE_OUTER_BOUND ( 'NONE', #192, .T. ) ;
#41 = CARTESIAN_POINT ( 'NONE',  ( 1.906192921252219839E-15, -6.686024735685277809E-17, 0.5459553513993053997 ) ) ;
#42 = PLANE ( 'NONE',  #190 ) ;
#43 = APPLICATION_PROTOCOL_DEFINITION ( 'international standard', 'config_control_design', 1994, #245 ) ;
#44 = AXIS2_PLACEMENT_3D ( 'NONE', #202, #97, #158 ) ;
#45 =( NAMED_UNIT ( * ) PLANE_ANGLE_UNIT ( ) SI_UNIT ( $, .RADIAN. ) );
#46 = PERSON_AND_ORGANIZATION ( #256, #125 ) ;
#47 = DIRECTION ( 'NONE',  ( 0.0000000000000000000, 0.0000000000000000000, 1.000000000000000000 ) ) ;
#48 = PLANE ( 'NONE',  #212 ) ;
#49 = AXIS2_PLACEMENT_3D ( 'NONE', #99, #54, #119 ) ;
#50 = EDGE_LOOP ( 'NONE', ( #20 ) ) ;
#51 = CC_DESIGN_APPROVAL ( #248, ( #182 ) ) ;
#52 = PRODUCT_DEFINITION_SHAPE ( 'NONE', 'NONE',  #76 ) ;
#53 = ORIENTED_EDGE ( 'NONE', *, *, #247, .F. ) ;
#54 = DIRECTION ( 'NONE',  ( -3.491481338843133355E-15, 4.327174794786742882E-16, -1.000000000000000000 ) ) ;
#55 = CIRCLE ( 'NONE', #17, 0.5840741737109341747 ) ;
#56 = CARTESIAN_POINT ( 'NONE',  ( 1.501336975702547217E-13, -5.265981236333618470E-15, 43.00000000000000000 ) ) ;
#57 = COORDINATED_UNIVERSAL_TIME_OFFSET ( 1, 0, .AHEAD. ) ;
#58 = CARTESIAN_POINT ( 'NONE',  ( 1.487371050347174683E-13, -5.216995364367725042E-15, 42.60000000000000142 ) ) ;
#59 = CIRCLE ( 'NONE', #28, 0.5500000000000013767 ) ;
#60 = CONICAL_SURFACE ( 'NONE', #3, 1.100000000000000755, 0.7853981633974512766 ) ;
#61 = EDGE_CURVE ( 'NONE', #83, #83, #69, .T. ) ;
#62 = CARTESIAN_POINT ( 'NONE',  ( 6.989374044591558269E-16, -2.451542403084631220E-17, 0.2001836288464143854 ) ) ;
#63 = VERTEX_POINT ( 'NONE', #100 ) ;
#64 = APPROVAL_ROLE ( '' ) ;
#65 = AXIS2_PLACEMENT_3D ( 'NONE', #87, #244, #6 ) ;
#66 = CC_DESIGN_PERSON_AND_ORGANIZATION_ASSIGNMENT ( #206, #141, ( #182 ) ) ;
#67 = DIRECTION ( 'NONE',  ( -3.491481338843133355E-15, 1.224646799147353207E-16, -1.000000000000000000 ) ) ;
#68 = VERTEX_POINT ( 'NONE', #161 ) ;
#69 = CIRCLE ( 'NONE', #130, 0.5500000000000013767 ) ;
#70 = ADVANCED_FACE ( 'NONE', ( #79, #39 ), #155, .T. ) ;
#71 = CALENDAR_DATE ( 2021, 13, 10 ) ;
#72 = CALENDAR_DATE ( 2021, 13, 10 ) ;
#73 = EDGE_LOOP ( 'NONE', ( #111 ) ) ;
#74 = EDGE_CURVE ( 'NONE', #63, #63, #253, .T. ) ;
#75 =( GEOMETRIC_REPRESENTATION_CONTEXT ( 3 ) GLOBAL_UNCERTAINTY_ASSIGNED_CONTEXT ( ( #171 ) ) GLOBAL_UNIT_ASSIGNED_CONTEXT ( ( #122, #45, #84 ) ) REPRESENTATION_CONTEXT ( 'NONE', 'WORKASPACE' ) );
#76 = PRODUCT_DEFINITION ( 'UNKNOWN', '', #182, #147 ) ;
#77 = CARTESIAN_POINT ( 'NONE',  ( 2.897929511239801316E-14, -3.686287386450715076E-15, 8.300000000000002487 ) ) ;
#78 = FACE_OUTER_BOUND ( 'NONE', #213, .T. ) ;
#79 = FACE_OUTER_BOUND ( 'NONE', #146, .T. ) ;
#80 = CARTESIAN_POINT ( 'NONE',  ( 2.513866563967056016E-14, 1.124819836996383079E-32, 7.200000000000000178 ) ) ;
#81 = DATE_AND_TIME ( #71, #195 ) ;
#82 = APPROVAL_DATE_TIME ( #4, #91 ) ;
#83 = VERTEX_POINT ( 'NONE', #221 ) ;
#84 =( NAMED_UNIT ( * ) SI_UNIT ( $, .STERADIAN. ) SOLID_ANGLE_UNIT ( ) );
#85 = LOCAL_TIME ( 14, 57, 27.00000000000000000, #126 ) ;
#86 = COORDINATED_UNIVERSAL_TIME_OFFSET ( 1, 0, .AHEAD. ) ;
#87 = CARTESIAN_POINT ( 'NONE',  ( 0.0000000000000000000, 0.0000000000000000000, 0.0000000000000000000 ) ) ;
#88 = ORIENTED_EDGE ( 'NONE', *, *, #201, .T. ) ;
#89 = ORIENTED_EDGE ( 'NONE', *, *, #94, .T. ) ;
#90 = PERSON_AND_ORGANIZATION_ROLE ( 'classification_officer' ) ;
#91 = APPROVAL ( #144, 'UNSPECIFIED' ) ;
#92 = LOCAL_TIME ( 14, 57, 27.00000000000000000, #263 ) ;
#93 = FACE_OUTER_BOUND ( 'NONE', #109, .T. ) ;
#94 = EDGE_CURVE ( 'NONE', #240, #240, #8, .T. ) ;
#95 = ORIENTED_EDGE ( 'NONE', *, *, #165, .F. ) ;
#96 = DIRECTION ( 'NONE',  ( -4.275831445896958607E-31, -1.000000000000000000, -1.224646799147353207E-16 ) ) ;
#97 = DIRECTION ( 'NONE',  ( -3.491481338843133355E-15, 1.224646799147353207E-16, -1.000000000000000000 ) ) ;
#98 = CC_DESIGN_DATE_AND_TIME_ASSIGNMENT ( #153, #12, ( #13 ) ) ;
#99 = CARTESIAN_POINT ( 'NONE',  ( 2.897929511239800685E-14, -3.591555079672997065E-15, 8.300000000000000711 ) ) ;
#100 = CARTESIAN_POINT ( 'NONE',  ( 2.897929511239800685E-14, 0.5499999999999990452, 8.300000000000000711 ) ) ;
#101 = VERTEX_POINT ( 'NONE', #243 ) ;
#102 = FACE_BOUND ( 'NONE', #50, .T. ) ;
#103 = ADVANCED_BREP_SHAPE_REPRESENTATION ( '960479', ( #29, #25, #199 ), #75 ) ;
#104 = DIRECTION ( 'NONE',  ( -3.491481338843133355E-15, 1.224646799147353207E-16, -1.000000000000000000 ) ) ;
#105 = AXIS2_PLACEMENT_3D ( 'NONE', #218, #180, #96 ) ;
#106 = ADVANCED_FACE ( 'NONE', ( #133, #198 ), #200, .T. ) ;
#107 = PERSON_AND_ORGANIZATION ( #256, #125 ) ;
#108 = CIRCLE ( 'NONE', #238, 1.100000000000000755 ) ;
#109 = EDGE_LOOP ( 'NONE', ( #174 ) ) ;
#110 = EDGE_LOOP ( 'NONE', ( #120 ) ) ;
#111 = ORIENTED_EDGE ( 'NONE', *, *, #201, .F. ) ;
#112 = PERSON_AND_ORGANIZATION ( #256, #125 ) ;
#113 = DIRECTION ( 'NONE',  ( 1.510825004591027679E-30, 1.000000000000000000, 4.327174794786742389E-16 ) ) ;
#114 = ADVANCED_FACE ( 'NONE', ( #259 ), #42, .T. ) ;
#115 = CARTESIAN_POINT ( 'NONE',  ( 4.181782381366547462E-14, -5.182700854396747247E-15, 11.97710076477778962 ) ) ;
#116 = CARTESIAN_POINT ( 'NONE',  ( 2.988295697851066423E-14, -3.703550604510837499E-15, 8.558819045102522338 ) ) ;
#117 = CC_DESIGN_SECURITY_CLASSIFICATION ( #13, ( #182 ) ) ;
#118 = ADVANCED_FACE ( 'NONE', ( #93, #254 ), #249, .F. ) ;
#119 = DIRECTION ( 'NONE',  ( 0.0000000000000000000, 1.000000000000000000, 0.0000000000000000000 ) ) ;
#120 = ORIENTED_EDGE ( 'NONE', *, *, #94, .F. ) ;
#121 = CARTESIAN_POINT ( 'NONE',  ( 1.487371050347174683E-13, 1.499999999999995559, 42.60000000000000142 ) ) ;
#122 =( LENGTH_UNIT ( ) NAMED_UNIT ( * ) SI_UNIT ( .MILLI., .METRE. ) );
#123 = VERTEX_POINT ( 'NONE', #210 ) ;
#124 = DATE_AND_TIME ( #139, #152 ) ;
#125 = ORGANIZATION ( 'UNSPECIFIED', 'UNSPECIFIED', '' ) ;
#126 = COORDINATED_UNIVERSAL_TIME_OFFSET ( 1, 0, .AHEAD. ) ;
#127 = APPROVAL_ROLE ( '' ) ;
#128 = CC_DESIGN_PERSON_AND_ORGANIZATION_ASSIGNMENT ( #24, #252, ( #30 ) ) ;
#129 = DIRECTION ( 'NONE',  ( 0.0000000000000000000, 1.000000000000000000, 0.0000000000000000000 ) ) ;
#130 = AXIS2_PLACEMENT_3D ( 'NONE', #261, #257, #215 ) ;
#131 = DIRECTION ( 'NONE',  ( 0.0000000000000000000, 1.000000000000000000, 0.0000000000000000000 ) ) ;
#132 = DIRECTION ( 'NONE',  ( 3.491481338843133355E-15, -4.327174794786742882E-16, 1.000000000000000000 ) ) ;
#133 = FACE_OUTER_BOUND ( 'NONE', #7, .T. ) ;
#134 = CONICAL_SURFACE ( 'NONE', #262, 1.499999999999985789, 1.221730476396026610 ) ;
#135 = DIRECTION ( 'NONE',  ( -3.491481338843133355E-15, 1.224646799147353207E-16, -1.000000000000000000 ) ) ;
#136 = COORDINATED_UNIVERSAL_TIME_OFFSET ( 1, 0, .AHEAD. ) ;
#137 = CARTESIAN_POINT ( 'NONE',  ( 0.0000000000000000000, 0.0000000000000000000, 0.0000000000000000000 ) ) ;
#138 = CIRCLE ( 'NONE', #231, 1.499999999999994449 ) ;
#139 = CALENDAR_DATE ( 2021, 13, 10 ) ;
#140 = CYLINDRICAL_SURFACE ( 'NONE', #65, 0.5500000000000013767 ) ;
#141 = PERSON_AND_ORGANIZATION_ROLE ( 'design_supplier' ) ;
#142 = ADVANCED_FACE ( 'NONE', ( #156, #40 ), #226, .T. ) ;
#143 = CC_DESIGN_PERSON_AND_ORGANIZATION_ASSIGNMENT ( #239, #229, ( #76 ) ) ;
#144 = APPROVAL_STATUS ( 'not_yet_approved' ) ;
#145 = DATE_TIME_ROLE ( 'creation_date' ) ;
#146 = EDGE_LOOP ( 'NONE', ( #228 ) ) ;
#147 = DESIGN_CONTEXT ( 'detailed design', #22, 'design' ) ;
#148 = APPROVAL_PERSON_ORGANIZATION ( #112, #203, #36 ) ;
#149 = EDGE_CURVE ( 'NONE', #2, #2, #108, .T. ) ;
#150 = PRODUCT_RELATED_PRODUCT_CATEGORY ( 'detail', '', ( #30 ) ) ;
#151 = DIRECTION ( 'NONE',  ( 1.552480368360846608E-30, 1.000000000000000000, 4.327174794786742882E-16 ) ) ;
#152 = LOCAL_TIME ( 14, 57, 27.00000000000000000, #136 ) ;
#153 = DATE_AND_TIME ( #251, #85 ) ;
#154 = DIRECTION ( 'NONE',  ( -4.275831445896958607E-31, -1.000000000000000000, -1.224646799147353207E-16 ) ) ;
#155 = CYLINDRICAL_SURFACE ( 'NONE', #44, 1.499999999999994449 ) ;
#156 = FACE_BOUND ( 'NONE', #35, .T. ) ;
#157 = CC_DESIGN_APPROVAL ( #203, ( #13 ) ) ;
#158 = DIRECTION ( 'NONE',  ( 4.275831445896957731E-31, 1.000000000000000000, 1.224646799147352961E-16 ) ) ;
#159 = PERSON_AND_ORGANIZATION ( #256, #125 ) ;
#160 = CARTESIAN_POINT ( 'NONE',  ( 1.501336975702547217E-13, -5.265981236333618470E-15, 43.00000000000000000 ) ) ;
#161 = CARTESIAN_POINT ( 'NONE',  ( 4.181782381366547462E-14, -1.499999999999999556, 11.97710076477778962 ) ) ;
#162 = APPROVAL_PERSON_ORGANIZATION ( #159, #248, #64 ) ;
#163 = APPROVAL_DATE_TIME ( #124, #248 ) ;
#164 = CARTESIAN_POINT ( 'NONE',  ( 1.501336975702547217E-13, 8.248678804640145683E-33, 43.00000000000000000 ) ) ;
#165 = EDGE_CURVE ( 'NONE', #68, #68, #138, .T. ) ;
#166 = CARTESIAN_POINT ( 'NONE',  ( 1.501336975702547217E-13, 1.099999999999995426, 43.00000000000000000 ) ) ;
#167 = AXIS2_PLACEMENT_3D ( 'NONE', #237, #132, #234 ) ;
#168 = ORIENTED_EDGE ( 'NONE', *, *, #74, .T. ) ;
#169 = ORIENTED_EDGE ( 'NONE', *, *, #14, .F. ) ;
#170 = SHAPE_DEFINITION_REPRESENTATION ( #52, #103 ) ;
#171 = UNCERTAINTY_MEASURE_WITH_UNIT (LENGTH_MEASURE( 1.000000000000000082E-05 ), #122, 'distance_accuracy_value', 'NONE');
#172 = APPROVAL_PERSON_ORGANIZATION ( #107, #91, #127 ) ;
#173 = CC_DESIGN_PERSON_AND_ORGANIZATION_ASSIGNMENT ( #260, #223, ( #182 ) ) ;
#174 = ORIENTED_EDGE ( 'NONE', *, *, #74, .F. ) ;
#175 = DIRECTION ( 'NONE',  ( -3.491481338843133355E-15, 1.224646799147353207E-16, -1.000000000000000000 ) ) ;
#176 = ORIENTED_EDGE ( 'NONE', *, *, #149, .F. ) ;
#177 = AXIS2_PLACEMENT_3D ( 'NONE', #58, #175, #129 ) ;
#178 = DIRECTION ( 'NONE',  ( -3.491481338843133355E-15, 4.327174794786742882E-16, -1.000000000000000000 ) ) ;
#179 = DIRECTION ( 'NONE',  ( -3.491481338843133355E-15, 4.327174794786742882E-16, -1.000000000000000000 ) ) ;
#180 = DIRECTION ( 'NONE',  ( 3.491481338843133355E-15, -1.224646799147353207E-16, 1.000000000000000000 ) ) ;
#181 = ADVANCED_FACE ( 'NONE', ( #5, #102 ), #60, .T. ) ;
#182 = PRODUCT_DEFINITION_FORMATION_WITH_SPECIFIED_SOURCE ( 'ANY', '', #30, .NOT_KNOWN. ) ;
#183 = FACE_OUTER_BOUND ( 'NONE', #32, .T. ) ;
#184 = ADVANCED_FACE ( 'NONE', ( #183, #21 ), #140, .T. ) ;
#185 = FACE_OUTER_BOUND ( 'NONE', #230, .T. ) ;
#186 = LOCAL_TIME ( 14, 57, 27.00000000000000000, #57 ) ;
#187 = CALENDAR_DATE ( 2021, 13, 10 ) ;
#188 = MECHANICAL_CONTEXT ( 'NONE', #245, 'mechanical' ) ;
#189 = EDGE_LOOP ( 'NONE', ( #89 ) ) ;
#190 = AXIS2_PLACEMENT_3D ( 'NONE', #80, #196, #154 ) ;
#191 = ORIENTED_EDGE ( 'NONE', *, *, #61, .T. ) ;
#192 = EDGE_LOOP ( 'NONE', ( #95 ) ) ;
#193 = DATE_AND_TIME ( #72, #186 ) ;
#194 = ORIENTED_EDGE ( 'NONE', *, *, #247, .T. ) ;
#195 = LOCAL_TIME ( 14, 57, 27.00000000000000000, #86 ) ;
#196 = DIRECTION ( 'NONE',  ( 3.491481338843133355E-15, -1.224646799147353207E-16, 1.000000000000000000 ) ) ;
#197 = DIRECTION ( 'NONE',  ( -3.491481338843133355E-15, 1.224646799147353207E-16, -1.000000000000000000 ) ) ;
#198 = FACE_OUTER_BOUND ( 'NONE', #73, .T. ) ;
#199 = AXIS2_PLACEMENT_3D ( 'NONE', #137, #47, #27 ) ;
#200 = CYLINDRICAL_SURFACE ( 'NONE', #233, 0.5500000000000013767 ) ;
#201 = EDGE_CURVE ( 'NONE', #101, #101, #33, .T. ) ;
#202 = CARTESIAN_POINT ( 'NONE',  ( 0.0000000000000000000, 0.0000000000000000000, 0.0000000000000000000 ) ) ;
#203 = APPROVAL ( #232, 'UNSPECIFIED' ) ;
#204 = VERTEX_POINT ( 'NONE', #246 ) ;
#205 = AXIS2_PLACEMENT_3D ( 'NONE', #62, #104, #241 ) ;
#206 = PERSON_AND_ORGANIZATION ( #256, #125 ) ;
#207 = DIRECTION ( 'NONE',  ( 0.0000000000000000000, -1.000000000000000000, 0.0000000000000000000 ) ) ;
#208 = AXIS2_PLACEMENT_3D ( 'NONE', #77, #255, #151 ) ;
#209 = CLOSED_SHELL ( 'NONE', ( #70, #181, #227, #184, #142, #118, #26 ) ) ;
#210 = CARTESIAN_POINT ( 'NONE',  ( 2.513866563967056016E-14, -0.5500000000000044853, 7.200000000000000178 ) ) ;
#211 = EDGE_LOOP ( 'NONE', ( #11 ) ) ;
#212 = AXIS2_PLACEMENT_3D ( 'NONE', #164, #135, #1 ) ;
#213 = EDGE_LOOP ( 'NONE', ( #88 ) ) ;
#214 = CC_DESIGN_PERSON_AND_ORGANIZATION_ASSIGNMENT ( #46, #90, ( #13 ) ) ;
#215 = DIRECTION ( 'NONE',  ( 0.0000000000000000000, -1.000000000000000000, 0.0000000000000000000 ) ) ;
#216 = DIRECTION ( 'NONE',  ( 3.491481338843133355E-15, -1.224646799147353207E-16, 1.000000000000000000 ) ) ;
#217 = DIRECTION ( 'NONE',  ( 0.0000000000000000000, -1.000000000000000000, 0.0000000000000000000 ) ) ;
#218 = CARTESIAN_POINT ( 'NONE',  ( 2.513866563967056016E-14, 1.124819836996383079E-32, 7.200000000000000178 ) ) ;
#219 = DIRECTION ( 'NONE',  ( -5.135813185032677695E-31, -1.000000000000000000, -1.445602896647352968E-16 ) ) ;
#220 = CARTESIAN_POINT ( 'NONE',  ( 2.513866563967056016E-14, -3.115565852246454796E-15, 7.200000000000000178 ) ) ;
#221 = CARTESIAN_POINT ( 'NONE',  ( 2.513866563967056016E-14, -0.5500000000000044853, 7.200000000000000178 ) ) ;
#222 = CLOSED_SHELL ( 'NONE', ( #23, #106, #114 ) ) ;
#223 = PERSON_AND_ORGANIZATION_ROLE ( 'creator' ) ;
#224 = SECURITY_CLASSIFICATION_LEVEL ( 'unclassified' ) ;
#225 = DIRECTION ( 'NONE',  ( 0.0000000000000000000, 1.000000000000000000, 0.0000000000000000000 ) ) ;
#226 = CONICAL_SURFACE ( 'NONE', #167, 1.999999999999996669, 0.2617993877991504625 ) ;
#227 = ADVANCED_FACE ( 'NONE', ( #185 ), #48, .F. ) ;
#228 = ORIENTED_EDGE ( 'NONE', *, *, #165, .T. ) ;
#229 = PERSON_AND_ORGANIZATION_ROLE ( 'creator' ) ;
#230 = EDGE_LOOP ( 'NONE', ( #176 ) ) ;
#231 = AXIS2_PLACEMENT_3D ( 'NONE', #115, #16, #217 ) ;
#232 = APPROVAL_STATUS ( 'not_yet_approved' ) ;
#233 = AXIS2_PLACEMENT_3D ( 'NONE', #19, #179, #113 ) ;
#234 = DIRECTION ( 'NONE',  ( 0.0000000000000000000, -1.000000000000000000, 0.0000000000000000000 ) ) ;
#235 = DIRECTION ( 'NONE',  ( 0.0000000000000000000, 1.000000000000000000, 0.0000000000000000000 ) ) ;
#236 = FACE_OUTER_BOUND ( 'NONE', #34, .T. ) ;
#237 = CARTESIAN_POINT ( 'NONE',  ( 4.833301668878606181E-14, -5.990162663765524791E-15, 13.84312616856222711 ) ) ;
#238 = AXIS2_PLACEMENT_3D ( 'NONE', #56, #197, #131 ) ;
#239 = PERSON_AND_ORGANIZATION ( #256, #125 ) ;
#240 = VERTEX_POINT ( 'NONE', #121 ) ;
#241 = DIRECTION ( 'NONE',  ( -3.501690807976783821E-31, -1.000000000000000000, -9.856383386231834175E-17 ) ) ;
#242 = APPROVAL_STATUS ( 'not_yet_approved' ) ;
#243 = CARTESIAN_POINT ( 'NONE',  ( 6.989374044591556297E-16, -0.5500000000000013767, 0.2001836288464143299 ) ) ;
#244 = DIRECTION ( 'NONE',  ( -3.491481338843133355E-15, 4.327174794786742882E-16, -1.000000000000000000 ) ) ;
#245 = APPLICATION_CONTEXT ( 'configuration controlled 3d designs of mechanical parts and assemblies' ) ;
#246 = CARTESIAN_POINT ( 'NONE',  ( 2.988295697851066423E-14, 0.5840741737109305109, 8.558819045102522338 ) ) ;
#247 = EDGE_CURVE ( 'NONE', #123, #123, #59, .T. ) ;
#248 = APPROVAL ( #242, 'UNSPECIFIED' ) ;
#249 = TOROIDAL_SURFACE ( 'NONE', #208, 1.550000000000002709, 1.000000000000000222 ) ;
#250 = APPLICATION_PROTOCOL_DEFINITION ( 'international standard', 'config_control_design', 1994, #22 ) ;
#251 = CALENDAR_DATE ( 2021, 13, 10 ) ;
#252 = PERSON_AND_ORGANIZATION_ROLE ( 'design_owner' ) ;
#253 = CIRCLE ( 'NONE', #49, 0.5500000000000025979 ) ;
#254 = FACE_OUTER_BOUND ( 'NONE', #211, .T. ) ;
#255 = DIRECTION ( 'NONE',  ( -3.491481338843133355E-15, 4.327174794786742882E-16, -1.000000000000000000 ) ) ;
#256 = PERSON ( 'UNSPECIFIED', 'UNSPECIFIED', 'UNSPECIFIED', ('UNSPECIFIED'), ('UNSPECIFIED'), ('UNSPECIFIED') ) ;
#257 = DIRECTION ( 'NONE',  ( -3.491481338843133355E-15, 1.224646799147353207E-16, -1.000000000000000000 ) ) ;
#258 = CC_DESIGN_DATE_AND_TIME_ASSIGNMENT ( #81, #145, ( #76 ) ) ;
#259 = FACE_OUTER_BOUND ( 'NONE', #38, .T. ) ;
#260 = PERSON_AND_ORGANIZATION ( #256, #125 ) ;
#261 = CARTESIAN_POINT ( 'NONE',  ( 2.513866563967056016E-14, -3.115565852246454796E-15, 7.200000000000000178 ) ) ;
#262 = AXIS2_PLACEMENT_3D ( 'NONE', #41, #216, #219 ) ;
#263 = COORDINATED_UNIVERSAL_TIME_OFFSET ( 1, 0, .AHEAD. ) ;
ENDSEC;
END-ISO-10303-21;
