ISO-10303-21;
HEADER;
FILE_DESCRIPTION (( 'STEP AP203' ),
    '1' );
FILE_NAME ('960478.step',
    '2021-10-13T12:57:26',
    ( '' ),
    ( '' ),
    'SwSTEP 2.0',
    'SolidWorks 2019',
    '' );
FILE_SCHEMA (( 'CONFIG_CONTROL_DESIGN' ));
ENDSEC;

DATA;
#1 = CARTESIAN_POINT ( 'NONE',  ( 6.353976404174144688E-16, -2.228674911895120131E-17, 0.1819851171331040018 ) ) ;
#2 = AXIS2_PLACEMENT_3D ( 'NONE', #221, #81, #116 ) ;
#3 = ADVANCED_FACE ( 'NONE', ( #17, #13 ), #108, .F. ) ;
#4 = DIRECTION ( 'NONE',  ( 1.000000000000000000, 0.0000000000000000000, 0.0000000000000000000 ) ) ;
#5 = DIRECTION ( 'NONE',  ( 0.0000000000000000000, -1.000000000000000000, 0.0000000000000000000 ) ) ;
#6 = AXIS2_PLACEMENT_3D ( 'NONE', #208, #25, #4 ) ;
#7 = EDGE_LOOP ( 'NONE', ( #112 ) ) ;
#8 = APPLICATION_CONTEXT ( 'configuration controlled 3d designs of mechanical parts and assemblies' ) ;
#9 = APPROVAL_STATUS ( 'not_yet_approved' ) ;
#10 = EDGE_LOOP ( 'NONE', ( #68 ) ) ;
#11 = PRODUCT_DEFINITION ( 'UNKNOWN', '', #123, #179 ) ;
#12 = EDGE_LOOP ( 'NONE', ( #35 ) ) ;
#13 = FACE_OUTER_BOUND ( 'NONE', #30, .T. ) ;
#14 = CARTESIAN_POINT ( 'NONE',  ( 1.501336975702547217E-13, 8.248678804640145683E-33, 43.00000000000000000 ) ) ;
#15 = APPROVAL_ROLE ( '' ) ;
#16 = PLANE ( 'NONE',  #253 ) ;
#17 = FACE_OUTER_BOUND ( 'NONE', #213, .T. ) ;
#18 = SECURITY_CLASSIFICATION_LEVEL ( 'unclassified' ) ;
#19 = AXIS2_PLACEMENT_3D ( 'NONE', #82, #167, #143 ) ;
#20 = FACE_OUTER_BOUND ( 'NONE', #245, .T. ) ;
#21 = AXIS2_PLACEMENT_3D ( 'NONE', #65, #222, #204 ) ;
#22 = DIRECTION ( 'NONE',  ( 0.0000000000000000000, 1.000000000000000000, 0.0000000000000000000 ) ) ;
#23 = VERTEX_POINT ( 'NONE', #84 ) ;
#24 = EDGE_CURVE ( 'NONE', #45, #45, #66, .T. ) ;
#25 = DIRECTION ( 'NONE',  ( 0.0000000000000000000, 0.0000000000000000000, 1.000000000000000000 ) ) ;
#26 = CARTESIAN_POINT ( 'NONE',  ( 1.501336975702547217E-13, -5.265981236333618470E-15, 43.00000000000000000 ) ) ;
#27 = CONICAL_SURFACE ( 'NONE', #207, 1.499999999999985789, 1.221730476396026610 ) ;
#28 = PRODUCT_DEFINITION_SHAPE ( 'NONE', 'NONE',  #11 ) ;
#29 = PERSON_AND_ORGANIZATION ( #257, #130 ) ;
#30 = EDGE_LOOP ( 'NONE', ( #91 ) ) ;
#31 = CLOSED_SHELL ( 'NONE', ( #244, #78, #129 ) ) ;
#32 = CONICAL_SURFACE ( 'NONE', #21, 1.100000000000000755, 0.7853981633974512766 ) ;
#33 = PERSON_AND_ORGANIZATION_ROLE ( 'classification_officer' ) ;
#34 = EDGE_CURVE ( 'NONE', #172, #172, #139, .T. ) ;
#35 = ORIENTED_EDGE ( 'NONE', *, *, #34, .F. ) ;
#36 = APPROVAL_ROLE ( '' ) ;
#37 = APPROVAL_STATUS ( 'not_yet_approved' ) ;
#38 = DIRECTION ( 'NONE',  ( 3.491481338843133355E-15, -4.327174794786742882E-16, 1.000000000000000000 ) ) ;
#39 = DIRECTION ( 'NONE',  ( 0.0000000000000000000, 1.000000000000000000, 0.0000000000000000000 ) ) ;
#40 = DIRECTION ( 'NONE',  ( 4.275831445896958607E-31, 1.000000000000000000, 1.224646799147353207E-16 ) ) ;
#41 = AXIS2_PLACEMENT_3D ( 'NONE', #54, #259, #122 ) ;
#42 = DIRECTION ( 'NONE',  ( -3.491481338843133355E-15, 1.224646799147353207E-16, -1.000000000000000000 ) ) ;
#43 = CARTESIAN_POINT ( 'NONE',  ( 2.269462870248036681E-14, -2.812663616611382873E-15, 6.500000000000000000 ) ) ;
#44 = CIRCLE ( 'NONE', #127, 0.5000000000000012212 ) ;
#45 = VERTEX_POINT ( 'NONE', #184 ) ;
#46 = PERSON_AND_ORGANIZATION_ROLE ( 'design_owner' ) ;
#47 = LOCAL_TIME ( 14, 57, 26.00000000000000000, #258 ) ;
#48 = ORIENTED_EDGE ( 'NONE', *, *, #83, .T. ) ;
#49 = ADVANCED_FACE ( 'NONE', ( #175, #256 ), #181, .T. ) ;
#50 = ORIENTED_EDGE ( 'NONE', *, *, #106, .F. ) ;
#51 = ORIENTED_EDGE ( 'NONE', *, *, #229, .T. ) ;
#52 = CIRCLE ( 'NONE', #171, 1.500000000000000666 ) ;
#53 = COORDINATED_UNIVERSAL_TIME_OFFSET ( 1, 0, .AHEAD. ) ;
#54 = CARTESIAN_POINT ( 'NONE',  ( 2.269462870248036681E-14, 1.124819836996382806E-32, 6.500000000000000000 ) ) ;
#55 = DIRECTION ( 'NONE',  ( 0.0000000000000000000, 1.000000000000000000, 0.0000000000000000000 ) ) ;
#56 = EDGE_CURVE ( 'NONE', #61, #61, #133, .T. ) ;
#57 = PERSON_AND_ORGANIZATION_ROLE ( 'creator' ) ;
#58 = DIRECTION ( 'NONE',  ( 1.532069240113635497E-30, 1.000000000000000000, 4.327174794786742882E-16 ) ) ;
#59 = ORIENTED_EDGE ( 'NONE', *, *, #56, .T. ) ;
#60 = CC_DESIGN_APPROVAL ( #153, ( #11 ) ) ;
#61 = VERTEX_POINT ( 'NONE', #128 ) ;
#62 = DIRECTION ( 'NONE',  ( -3.851859888774462510E-31, -1.000000000000000000, -1.084202172485501846E-16 ) ) ;
#63 = APPROVAL ( #37, 'UNSPECIFIED' ) ;
#64 = DIRECTION ( 'NONE',  ( -3.491481338843133355E-15, 1.224646799147353207E-16, -1.000000000000000000 ) ) ;
#65 = CARTESIAN_POINT ( 'NONE',  ( 1.501336975702547217E-13, -5.265981236333618470E-15, 43.00000000000000000 ) ) ;
#66 = CIRCLE ( 'NONE', #246, 1.499999999999994449 ) ;
#67 = AXIS2_PLACEMENT_3D ( 'NONE', #1, #126, #62 ) ;
#68 = ORIENTED_EDGE ( 'NONE', *, *, #24, .T. ) ;
#69 = AXIS2_PLACEMENT_3D ( 'NONE', #98, #219, #58 ) ;
#70 = APPLICATION_CONTEXT ( 'configuration controlled 3d designs of mechanical parts and assemblies' ) ;
#71 = CC_DESIGN_SECURITY_CLASSIFICATION ( #169, ( #123 ) ) ;
#72 = DATE_AND_TIME ( #113, #47 ) ;
#73 = FACE_OUTER_BOUND ( 'NONE', #192, .T. ) ;
#74 = DATE_AND_TIME ( #214, #140 ) ;
#75 = CARTESIAN_POINT ( 'NONE',  ( 2.708977190743614808E-14, -3.357376620927897201E-15, 7.758819045102520739 ) ) ;
#76 = DATE_AND_TIME ( #99, #85 ) ;
#77 = FACE_BOUND ( 'NONE', #12, .T. ) ;
#78 = ADVANCED_FACE ( 'NONE', ( #201, #145 ), #121, .T. ) ;
#79 = PERSON_AND_ORGANIZATION ( #257, #130 ) ;
#80 = CONICAL_SURFACE ( 'NONE', #95, 1.999999999999996225, 0.2617993877991502960 ) ;
#81 = DIRECTION ( 'NONE',  ( -3.491481338843133355E-15, 1.224646799147353207E-16, -1.000000000000000000 ) ) ;
#82 = CARTESIAN_POINT ( 'NONE',  ( 0.0000000000000000000, 0.0000000000000000000, 0.0000000000000000000 ) ) ;
#83 = EDGE_CURVE ( 'NONE', #205, #205, #146, .T. ) ;
#84 = CARTESIAN_POINT ( 'NONE',  ( 6.353976404174142716E-16, -0.5000000000000012212, 0.1819851171331039463 ) ) ;
#85 = LOCAL_TIME ( 14, 57, 26.00000000000000000, #177 ) ;
#86 = FACE_OUTER_BOUND ( 'NONE', #155, .T. ) ;
#87 = PLANE ( 'NONE',  #193 ) ;
#88 = CIRCLE ( 'NONE', #147, 1.100000000000000755 ) ;
#89 = EDGE_LOOP ( 'NONE', ( #228 ) ) ;
#90 = ADVANCED_BREP_SHAPE_REPRESENTATION ( '960478', ( #251, #248, #6 ), #247 ) ;
#91 = ORIENTED_EDGE ( 'NONE', *, *, #34, .T. ) ;
#92 = ORIENTED_EDGE ( 'NONE', *, *, #56, .F. ) ;
#93 = EDGE_LOOP ( 'NONE', ( #48 ) ) ;
#94 = DIRECTION ( 'NONE',  ( -3.491481338843133355E-15, 4.327174794786742882E-16, -1.000000000000000000 ) ) ;
#95 = AXIS2_PLACEMENT_3D ( 'NONE', #196, #226, #241 ) ;
#96 = DATE_AND_TIME ( #197, #156 ) ;
#97 = PERSON_AND_ORGANIZATION_ROLE ( 'creator' ) ;
#98 = CARTESIAN_POINT ( 'NONE',  ( 2.618611004132349701E-14, -3.252606517456513302E-15, 7.499999999999999112 ) ) ;
#99 = CALENDAR_DATE ( 2021, 13, 10 ) ;
#100 = DIRECTION ( 'NONE',  ( 1.510825004591027855E-30, 1.000000000000000000, 4.327174794786742882E-16 ) ) ;
#101 = DIRECTION ( 'NONE',  ( 3.491481338843133355E-15, -1.224646799147353207E-16, 1.000000000000000000 ) ) ;
#102 = CC_DESIGN_DATE_AND_TIME_ASSIGNMENT ( #137, #200, ( #11 ) ) ;
#103 = FACE_OUTER_BOUND ( 'NONE', #261, .T. ) ;
#104 = CIRCLE ( 'NONE', #67, 0.5000000000000012212 ) ;
#105 = DIRECTION ( 'NONE',  ( -5.135813185032677695E-31, -1.000000000000000000, -1.445602896647352968E-16 ) ) ;
#106 = EDGE_CURVE ( 'NONE', #209, #209, #52, .T. ) ;
#107 = CARTESIAN_POINT ( 'NONE',  ( 1.487371050347174683E-13, 1.499999999999995559, 42.60000000000000142 ) ) ;
#108 = TOROIDAL_SURFACE ( 'NONE', #69, 1.500000000000002220, 1.000000000000000000 ) ;
#109 = APPROVAL_PERSON_ORGANIZATION ( #180, #162, #15 ) ;
#110 = ADVANCED_FACE ( 'NONE', ( #165, #234 ), #262, .T. ) ;
#111 = APPLICATION_PROTOCOL_DEFINITION ( 'international standard', 'config_control_design', 1994, #8 ) ;
#112 = ORIENTED_EDGE ( 'NONE', *, *, #229, .F. ) ;
#113 = CALENDAR_DATE ( 2021, 13, 10 ) ;
#114 = EDGE_LOOP ( 'NONE', ( #51 ) ) ;
#115 = PERSON_AND_ORGANIZATION ( #257, #130 ) ;
#116 = DIRECTION ( 'NONE',  ( 0.0000000000000000000, -1.000000000000000000, 0.0000000000000000000 ) ) ;
#117 = CC_DESIGN_APPROVAL ( #63, ( #169 ) ) ;
#118 = ADVANCED_FACE ( 'NONE', ( #254 ), #16, .F. ) ;
#119 = DIRECTION ( 'NONE',  ( 0.0000000000000000000, -1.000000000000000000, 0.0000000000000000000 ) ) ;
#120 = CC_DESIGN_PERSON_AND_ORGANIZATION_ASSIGNMENT ( #115, #164, ( #123 ) ) ;
#121 = CYLINDRICAL_SURFACE ( 'NONE', #174, 0.5000000000000012212 ) ;
#122 = DIRECTION ( 'NONE',  ( -4.275831445896958607E-31, -1.000000000000000000, -1.224646799147353207E-16 ) ) ;
#123 = PRODUCT_DEFINITION_FORMATION_WITH_SPECIFIED_SOURCE ( 'ANY', '', #199, .NOT_KNOWN. ) ;
#124 = CARTESIAN_POINT ( 'NONE',  ( 2.708977190743614808E-14, 0.5340741737109306886, 7.758819045102520739 ) ) ;
#125 = FACE_OUTER_BOUND ( 'NONE', #89, .T. ) ;
#126 = DIRECTION ( 'NONE',  ( -3.491481338843133355E-15, 1.224646799147353207E-16, -1.000000000000000000 ) ) ;
#127 = AXIS2_PLACEMENT_3D ( 'NONE', #43, #42, #5 ) ;
#128 = CARTESIAN_POINT ( 'NONE',  ( 2.618611004132350016E-14, 0.4999999999999991673, 7.500000000000000000 ) ) ;
#129 = ADVANCED_FACE ( 'NONE', ( #73 ), #159, .T. ) ;
#130 = ORGANIZATION ( 'UNSPECIFIED', 'UNSPECIFIED', '' ) ;
#131 = CC_DESIGN_DATE_AND_TIME_ASSIGNMENT ( #96, #216, ( #169 ) ) ;
#132 = EDGE_LOOP ( 'NONE', ( #154 ) ) ;
#133 = CIRCLE ( 'NONE', #252, 0.5000000000000024425 ) ;
#134 = COORDINATED_UNIVERSAL_TIME_OFFSET ( 1, 0, .AHEAD. ) ;
#135 = ORIENTED_EDGE ( 'NONE', *, *, #24, .F. ) ;
#136 = UNCERTAINTY_MEASURE_WITH_UNIT (LENGTH_MEASURE( 1.000000000000000082E-05 ), #190, 'distance_accuracy_value', 'NONE');
#137 = DATE_AND_TIME ( #157, #240 ) ;
#138 = DIRECTION ( 'NONE',  ( -3.491481338843133355E-15, 4.327174794786742882E-16, -1.000000000000000000 ) ) ;
#139 = CIRCLE ( 'NONE', #212, 0.5340741737109340193 ) ;
#140 = LOCAL_TIME ( 14, 57, 26.00000000000000000, #53 ) ;
#141 = APPROVAL_STATUS ( 'not_yet_approved' ) ;
#142 = DIRECTION ( 'NONE',  ( 0.0000000000000000000, 1.000000000000000000, 0.0000000000000000000 ) ) ;
#143 = DIRECTION ( 'NONE',  ( 1.510825004591027855E-30, 1.000000000000000000, 4.327174794786742882E-16 ) ) ;
#144 = ADVANCED_FACE ( 'NONE', ( #77, #20 ), #80, .T. ) ;
#145 = FACE_OUTER_BOUND ( 'NONE', #238, .T. ) ;
#146 = CIRCLE ( 'NONE', #2, 0.5000000000000012212 ) ;
#147 = AXIS2_PLACEMENT_3D ( 'NONE', #26, #64, #22 ) ;
#148 = CARTESIAN_POINT ( 'NONE',  ( 2.269462870248036681E-14, -0.5000000000000039968, 6.500000000000000000 ) ) ;
#149 = CARTESIAN_POINT ( 'NONE',  ( 1.906192921252219839E-15, -6.686024735685277809E-17, 0.5459553513993053997 ) ) ;
#150 = CARTESIAN_POINT ( 'NONE',  ( 2.269462870248036681E-14, 1.124819836996382806E-32, 6.500000000000000000 ) ) ;
#151 = APPLICATION_PROTOCOL_DEFINITION ( 'international standard', 'config_control_design', 1994, #70 ) ;
#152 = ADVANCED_FACE ( 'NONE', ( #86, #168 ), #32, .T. ) ;
#153 = APPROVAL ( #9, 'UNSPECIFIED' ) ;
#154 = ORIENTED_EDGE ( 'NONE', *, *, #106, .T. ) ;
#155 = EDGE_LOOP ( 'NONE', ( #50 ) ) ;
#156 = LOCAL_TIME ( 14, 57, 26.00000000000000000, #255 ) ;
#157 = CALENDAR_DATE ( 2021, 13, 10 ) ;
#158 = EDGE_CURVE ( 'NONE', #23, #23, #104, .T. ) ;
#159 = PLANE ( 'NONE',  #41 ) ;
#160 = SHAPE_DEFINITION_REPRESENTATION ( #28, #90 ) ;
#161 = DIRECTION ( 'NONE',  ( 4.275831445896957731E-31, 1.000000000000000000, 1.224646799147352961E-16 ) ) ;
#162 = APPROVAL ( #141, 'UNSPECIFIED' ) ;
#163 = CARTESIAN_POINT ( 'NONE',  ( 0.0000000000000000000, 0.0000000000000000000, 0.0000000000000000000 ) ) ;
#164 = PERSON_AND_ORGANIZATION_ROLE ( 'design_supplier' ) ;
#165 = FACE_OUTER_BOUND ( 'NONE', #10, .T. ) ;
#166 = CC_DESIGN_PERSON_AND_ORGANIZATION_ASSIGNMENT ( #249, #46, ( #199 ) ) ;
#167 = DIRECTION ( 'NONE',  ( -3.491481338843133355E-15, 4.327174794786742882E-16, -1.000000000000000000 ) ) ;
#168 = FACE_BOUND ( 'NONE', #114, .T. ) ;
#169 = SECURITY_CLASSIFICATION ( '', '', #18 ) ;
#170 = CC_DESIGN_PERSON_AND_ORGANIZATION_ASSIGNMENT ( #237, #97, ( #123 ) ) ;
#171 = AXIS2_PLACEMENT_3D ( 'NONE', #198, #203, #39 ) ;
#172 = VERTEX_POINT ( 'NONE', #124 ) ;
#173 = EDGE_CURVE ( 'NONE', #239, #239, #44, .T. ) ;
#174 = AXIS2_PLACEMENT_3D ( 'NONE', #163, #138, #100 ) ;
#175 = FACE_OUTER_BOUND ( 'NONE', #250, .T. ) ;
#176 = DIRECTION ( 'NONE',  ( -3.491481338843133355E-15, 4.327174794786742882E-16, -1.000000000000000000 ) ) ;
#177 = COORDINATED_UNIVERSAL_TIME_OFFSET ( 1, 0, .AHEAD. ) ;
#178 = DIRECTION ( 'NONE',  ( -3.491481338843133355E-15, 1.224646799147353207E-16, -1.000000000000000000 ) ) ;
#179 = DESIGN_CONTEXT ( 'detailed design', #8, 'design' ) ;
#180 = PERSON_AND_ORGANIZATION ( #257, #130 ) ;
#181 = CYLINDRICAL_SURFACE ( 'NONE', #19, 0.5000000000000012212 ) ;
#182 = APPROVAL_DATE_TIME ( #76, #63 ) ;
#183 = ORIENTED_EDGE ( 'NONE', *, *, #173, .F. ) ;
#184 = CARTESIAN_POINT ( 'NONE',  ( 3.967615803010301277E-14, -1.499999999999999334, 11.36370330515623195 ) ) ;
#185 = VERTEX_POINT ( 'NONE', #188 ) ;
#186 = CLOSED_SHELL ( 'NONE', ( #110, #152, #118, #49, #144, #3, #235 ) ) ;
#187 = AXIS2_PLACEMENT_3D ( 'NONE', #202, #217, #161 ) ;
#188 = CARTESIAN_POINT ( 'NONE',  ( 1.501336975702547217E-13, 1.099999999999995426, 43.00000000000000000 ) ) ;
#189 =( NAMED_UNIT ( * ) PLANE_ANGLE_UNIT ( ) SI_UNIT ( $, .RADIAN. ) );
#190 =( LENGTH_UNIT ( ) NAMED_UNIT ( * ) SI_UNIT ( .MILLI., .METRE. ) );
#191 = APPROVAL_PERSON_ORGANIZATION ( #195, #63, #36 ) ;
#192 = EDGE_LOOP ( 'NONE', ( #194 ) ) ;
#193 = AXIS2_PLACEMENT_3D ( 'NONE', #150, #101, #206 ) ;
#194 = ORIENTED_EDGE ( 'NONE', *, *, #83, .F. ) ;
#195 = PERSON_AND_ORGANIZATION ( #257, #130 ) ;
#196 = CARTESIAN_POINT ( 'NONE',  ( 4.619135090522361259E-14, -5.724734861119462405E-15, 13.22972870894066943 ) ) ;
#197 = CALENDAR_DATE ( 2021, 13, 10 ) ;
#198 = CARTESIAN_POINT ( 'NONE',  ( 1.487371050347174683E-13, -5.216995364367725042E-15, 42.60000000000000142 ) ) ;
#199 = PRODUCT ( '960478', '960478', '', ( #242 ) ) ;
#200 = DATE_TIME_ROLE ( 'creation_date' ) ;
#201 = FACE_OUTER_BOUND ( 'NONE', #93, .T. ) ;
#202 = CARTESIAN_POINT ( 'NONE',  ( 0.0000000000000000000, 0.0000000000000000000, 0.0000000000000000000 ) ) ;
#203 = DIRECTION ( 'NONE',  ( -3.491481338843133355E-15, 1.224646799147353207E-16, -1.000000000000000000 ) ) ;
#204 = DIRECTION ( 'NONE',  ( 0.0000000000000000000, 1.000000000000000000, 0.0000000000000000000 ) ) ;
#205 = VERTEX_POINT ( 'NONE', #263 ) ;
#206 = DIRECTION ( 'NONE',  ( -4.275831445896958607E-31, -1.000000000000000000, -1.224646799147353207E-16 ) ) ;
#207 = AXIS2_PLACEMENT_3D ( 'NONE', #149, #225, #105 ) ;
#208 = CARTESIAN_POINT ( 'NONE',  ( 0.0000000000000000000, 0.0000000000000000000, 0.0000000000000000000 ) ) ;
#209 = VERTEX_POINT ( 'NONE', #107 ) ;
#210 = ORIENTED_EDGE ( 'NONE', *, *, #173, .T. ) ;
#211 = CC_DESIGN_PERSON_AND_ORGANIZATION_ASSIGNMENT ( #79, #57, ( #11 ) ) ;
#212 = AXIS2_PLACEMENT_3D ( 'NONE', #75, #94, #55 ) ;
#213 = EDGE_LOOP ( 'NONE', ( #92 ) ) ;
#214 = CALENDAR_DATE ( 2021, 13, 10 ) ;
#215 = CARTESIAN_POINT ( 'NONE',  ( 3.967615803010301277E-14, -4.917273051750684861E-15, 11.36370330515623195 ) ) ;
#216 = DATE_TIME_ROLE ( 'classification_date' ) ;
#217 = DIRECTION ( 'NONE',  ( -3.491481338843133355E-15, 1.224646799147353207E-16, -1.000000000000000000 ) ) ;
#218 = PERSON_AND_ORGANIZATION ( #257, #130 ) ;
#219 = DIRECTION ( 'NONE',  ( -3.491481338843133355E-15, 4.327174794786742882E-16, -1.000000000000000000 ) ) ;
#220 = EDGE_LOOP ( 'NONE', ( #183 ) ) ;
#221 = CARTESIAN_POINT ( 'NONE',  ( 2.269462870248036681E-14, -2.812663616611382873E-15, 6.500000000000000000 ) ) ;
#222 = DIRECTION ( 'NONE',  ( -3.491481338843133355E-15, 1.224646799147353207E-16, -1.000000000000000000 ) ) ;
#223 = CC_DESIGN_PERSON_AND_ORGANIZATION_ASSIGNMENT ( #218, #33, ( #169 ) ) ;
#224 =( NAMED_UNIT ( * ) SI_UNIT ( $, .STERADIAN. ) SOLID_ANGLE_UNIT ( ) );
#225 = DIRECTION ( 'NONE',  ( 3.491481338843133355E-15, -1.224646799147353207E-16, 1.000000000000000000 ) ) ;
#226 = DIRECTION ( 'NONE',  ( 3.491481338843133355E-15, -4.327174794786742882E-16, 1.000000000000000000 ) ) ;
#227 = PRODUCT_RELATED_PRODUCT_CATEGORY ( 'detail', '', ( #199 ) ) ;
#228 = ORIENTED_EDGE ( 'NONE', *, *, #158, .T. ) ;
#229 = EDGE_CURVE ( 'NONE', #185, #185, #88, .T. ) ;
#230 = APPROVAL_PERSON_ORGANIZATION ( #29, #153, #260 ) ;
#231 = ORIENTED_EDGE ( 'NONE', *, *, #158, .F. ) ;
#232 = APPROVAL_DATE_TIME ( #74, #162 ) ;
#233 = APPROVAL_DATE_TIME ( #72, #153 ) ;
#234 = FACE_OUTER_BOUND ( 'NONE', #132, .T. ) ;
#235 = ADVANCED_FACE ( 'NONE', ( #103 ), #87, .F. ) ;
#236 = CARTESIAN_POINT ( 'NONE',  ( 2.618611004132350016E-14, -3.245381096090056767E-15, 7.500000000000000000 ) ) ;
#237 = PERSON_AND_ORGANIZATION ( #257, #130 ) ;
#238 = EDGE_LOOP ( 'NONE', ( #231 ) ) ;
#239 = VERTEX_POINT ( 'NONE', #148 ) ;
#240 = LOCAL_TIME ( 14, 57, 26.00000000000000000, #134 ) ;
#241 = DIRECTION ( 'NONE',  ( 0.0000000000000000000, -1.000000000000000000, 0.0000000000000000000 ) ) ;
#242 = MECHANICAL_CONTEXT ( 'NONE', #70, 'mechanical' ) ;
#243 = CC_DESIGN_APPROVAL ( #162, ( #123 ) ) ;
#244 = ADVANCED_FACE ( 'NONE', ( #125 ), #27, .T. ) ;
#245 = EDGE_LOOP ( 'NONE', ( #135 ) ) ;
#246 = AXIS2_PLACEMENT_3D ( 'NONE', #215, #38, #119 ) ;
#247 =( GEOMETRIC_REPRESENTATION_CONTEXT ( 3 ) GLOBAL_UNCERTAINTY_ASSIGNED_CONTEXT ( ( #136 ) ) GLOBAL_UNIT_ASSIGNED_CONTEXT ( ( #190, #189, #224 ) ) REPRESENTATION_CONTEXT ( 'NONE', 'WORKASPACE' ) );
#248 = MANIFOLD_SOLID_BREP ( 'Corps-Déplacer/Copier1[2]', #31 ) ;
#249 = PERSON_AND_ORGANIZATION ( #257, #130 ) ;
#250 = EDGE_LOOP ( 'NONE', ( #59 ) ) ;
#251 = MANIFOLD_SOLID_BREP ( 'Corps-Déplacer/Copier1[1]', #186 ) ;
#252 = AXIS2_PLACEMENT_3D ( 'NONE', #236, #176, #142 ) ;
#253 = AXIS2_PLACEMENT_3D ( 'NONE', #14, #178, #40 ) ;
#254 = FACE_OUTER_BOUND ( 'NONE', #7, .T. ) ;
#255 = COORDINATED_UNIVERSAL_TIME_OFFSET ( 1, 0, .AHEAD. ) ;
#256 = FACE_OUTER_BOUND ( 'NONE', #220, .T. ) ;
#257 = PERSON ( 'UNSPECIFIED', 'UNSPECIFIED', 'UNSPECIFIED', ('UNSPECIFIED'), ('UNSPECIFIED'), ('UNSPECIFIED') ) ;
#258 = COORDINATED_UNIVERSAL_TIME_OFFSET ( 1, 0, .AHEAD. ) ;
#259 = DIRECTION ( 'NONE',  ( 3.491481338843133355E-15, -1.224646799147353207E-16, 1.000000000000000000 ) ) ;
#260 = APPROVAL_ROLE ( '' ) ;
#261 = EDGE_LOOP ( 'NONE', ( #210 ) ) ;
#262 = CYLINDRICAL_SURFACE ( 'NONE', #187, 1.499999999999994449 ) ;
#263 = CARTESIAN_POINT ( 'NONE',  ( 2.269462870248036681E-14, -0.5000000000000039968, 6.500000000000000000 ) ) ;
ENDSEC;
END-ISO-10303-21;
