ISO-10303-21;
HEADER;
FILE_DESCRIPTION (( 'STEP AP203' ),
    '1' );
FILE_NAME ('960477.step',
    '2021-10-13T12:57:26',
    ( '' ),
    ( '' ),
    'SwSTEP 2.0',
    'SolidWorks 2019',
    '' );
FILE_SCHEMA (( 'CONFIG_CONTROL_DESIGN' ));
ENDSEC;

DATA;
#1 = EDGE_LOOP ( 'NONE', ( #205 ) ) ;
#2 = PERSON_AND_ORGANIZATION_ROLE ( 'creator' ) ;
#3 = CC_DESIGN_PERSON_AND_ORGANIZATION_ASSIGNMENT ( #187, #249, ( #73 ) ) ;
#4 = DATE_TIME_ROLE ( 'classification_date' ) ;
#5 = APPROVAL_PERSON_ORGANIZATION ( #202, #166, #62 ) ;
#6 = APPROVAL_STATUS ( 'not_yet_approved' ) ;
#7 = DIRECTION ( 'NONE',  ( 0.0000000000000000000, 1.000000000000000000, 0.0000000000000000000 ) ) ;
#8 = DIRECTION ( 'NONE',  ( -3.491481338843133355E-15, 1.224646799147353207E-16, -1.000000000000000000 ) ) ;
#9 = UNCERTAINTY_MEASURE_WITH_UNIT (LENGTH_MEASURE( 1.000000000000000082E-05 ), #104, 'distance_accuracy_value', 'NONE');
#10 = AXIS2_PLACEMENT_3D ( 'NONE', #194, #8, #93 ) ;
#11 = FACE_BOUND ( 'NONE', #246, .T. ) ;
#12 = CIRCLE ( 'NONE', #94, 0.4750000000000011435 ) ;
#13 = CARTESIAN_POINT ( 'NONE',  ( 1.906192921252219839E-15, -6.686024735685277809E-17, 0.5459553513993053997 ) ) ;
#14 = CARTESIAN_POINT ( 'NONE',  ( 2.164718430082742680E-14, -0.4750000000000038081, 6.200000000000000178 ) ) ;
#15 = EDGE_CURVE ( 'NONE', #179, #179, #190, .T. ) ;
#16 = CIRCLE ( 'NONE', #174, 0.5090741737109337750 ) ;
#17 = ADVANCED_FACE ( 'NONE', ( #168, #193 ), #189, .T. ) ;
#18 = CARTESIAN_POINT ( 'NONE',  ( 1.487371050347174683E-13, 1.499999999999995559, 42.60000000000000142 ) ) ;
#19 = COORDINATED_UNIVERSAL_TIME_OFFSET ( 1, 0, .AHEAD. ) ;
#20 = EDGE_LOOP ( 'NONE', ( #63 ) ) ;
#21 = AXIS2_PLACEMENT_3D ( 'NONE', #255, #260, #176 ) ;
#22 = EDGE_LOOP ( 'NONE', ( #126 ) ) ;
#23 = CC_DESIGN_DATE_AND_TIME_ASSIGNMENT ( #109, #181, ( #40 ) ) ;
#24 = DIRECTION ( 'NONE',  ( 0.0000000000000000000, -1.000000000000000000, 0.0000000000000000000 ) ) ;
#25 = PERSON_AND_ORGANIZATION ( #124, #59 ) ;
#26 = TOROIDAL_SURFACE ( 'NONE', #182, 1.475000000000001865, 1.000000000000000000 ) ;
#27 = DIRECTION ( 'NONE',  ( 0.0000000000000000000, 1.000000000000000000, 0.0000000000000000000 ) ) ;
#28 = FACE_OUTER_BOUND ( 'NONE', #87, .T. ) ;
#29 = CLOSED_SHELL ( 'NONE', ( #217, #204, #220, #17, #137, #58, #33 ) ) ;
#30 = FACE_OUTER_BOUND ( 'NONE', #41, .T. ) ;
#31 = PLANE ( 'NONE',  #135 ) ;
#32 = AXIS2_PLACEMENT_3D ( 'NONE', #231, #117, #213 ) ;
#33 = ADVANCED_FACE ( 'NONE', ( #69 ), #31, .F. ) ;
#34 = VERTEX_POINT ( 'NONE', #101 ) ;
#35 = CONICAL_SURFACE ( 'NONE', #53, 1.499999999999985789, 1.221730476396026610 ) ;
#36 = DIRECTION ( 'NONE',  ( -3.491481338843133355E-15, 4.327174794786742882E-16, -1.000000000000000000 ) ) ;
#37 = COORDINATED_UNIVERSAL_TIME_OFFSET ( 1, 0, .AHEAD. ) ;
#38 = APPLICATION_CONTEXT ( 'configuration controlled 3d designs of mechanical parts and assemblies' ) ;
#39 = APPLICATION_PROTOCOL_DEFINITION ( 'international standard', 'config_control_design', 1994, #54 ) ;
#40 = PRODUCT_DEFINITION ( 'UNKNOWN', '', #154, #173 ) ;
#41 = EDGE_LOOP ( 'NONE', ( #123 ) ) ;
#42 = PERSON_AND_ORGANIZATION_ROLE ( 'design_supplier' ) ;
#43 = CARTESIAN_POINT ( 'NONE',  ( 2.164718430082742680E-14, -2.682848372767780508E-15, 6.200000000000000178 ) ) ;
#44 = APPROVAL_STATUS ( 'not_yet_approved' ) ;
#45 = PLANE ( 'NONE',  #78 ) ;
#46 = CALENDAR_DATE ( 2021, 13, 10 ) ;
#47 = CC_DESIGN_APPROVAL ( #239, ( #154 ) ) ;
#48 = EDGE_LOOP ( 'NONE', ( #107 ) ) ;
#49 = CIRCLE ( 'NONE', #169, 1.499999999999994449 ) ;
#50 = DIRECTION ( 'NONE',  ( 4.275831445896957731E-31, 1.000000000000000000, 1.224646799147352961E-16 ) ) ;
#51 = DIRECTION ( 'NONE',  ( 3.491481338843133355E-15, -4.327174794786742882E-16, 1.000000000000000000 ) ) ;
#52 = DIRECTION ( 'NONE',  ( 0.0000000000000000000, 1.000000000000000000, 0.0000000000000000000 ) ) ;
#53 = AXIS2_PLACEMENT_3D ( 'NONE', #13, #138, #122 ) ;
#54 = APPLICATION_CONTEXT ( 'configuration controlled 3d designs of mechanical parts and assemblies' ) ;
#55 = CARTESIAN_POINT ( 'NONE',  ( 2.569317937189889789E-14, 0.5090741737109305554, 7.358819045102520384 ) ) ;
#56 = EDGE_LOOP ( 'NONE', ( #183 ) ) ;
#57 =( NAMED_UNIT ( * ) SI_UNIT ( $, .STERADIAN. ) SOLID_ANGLE_UNIT ( ) );
#58 = ADVANCED_FACE ( 'NONE', ( #175, #250 ), #26, .F. ) ;
#59 = ORGANIZATION ( 'UNSPECIFIED', 'UNSPECIFIED', '' ) ;
#60 = CARTESIAN_POINT ( 'NONE',  ( 3.860532513832178816E-14, -1.499999999999999112, 11.05700457534545222 ) ) ;
#61 = EDGE_LOOP ( 'NONE', ( #185 ) ) ;
#62 = APPROVAL_ROLE ( '' ) ;
#63 = ORIENTED_EDGE ( 'NONE', *, *, #180, .F. ) ;
#64 = APPROVAL_ROLE ( '' ) ;
#65 = ORIENTED_EDGE ( 'NONE', *, *, #15, .F. ) ;
#66 = AXIS2_PLACEMENT_3D ( 'NONE', #236, #128, #27 ) ;
#67 = CALENDAR_DATE ( 2021, 13, 10 ) ;
#68 = DIRECTION ( 'NONE',  ( -3.491481338843133355E-15, 1.224646799147353207E-16, -1.000000000000000000 ) ) ;
#69 = FACE_OUTER_BOUND ( 'NONE', #110, .T. ) ;
#70 = DIRECTION ( 'NONE',  ( -4.054589356604697056E-31, -1.000000000000000000, -1.141265444721580799E-16 ) ) ;
#71 = AXIS2_PLACEMENT_3D ( 'NONE', #111, #248, #7 ) ;
#72 = CARTESIAN_POINT ( 'NONE',  ( 0.0000000000000000000, 0.0000000000000000000, 0.0000000000000000000 ) ) ;
#73 = SECURITY_CLASSIFICATION ( '', '', #164 ) ;
#74 = AXIS2_PLACEMENT_3D ( 'NONE', #86, #208, #243 ) ;
#75 = DIRECTION ( 'NONE',  ( 0.0000000000000000000, -1.000000000000000000, 0.0000000000000000000 ) ) ;
#76 = CC_DESIGN_PERSON_AND_ORGANIZATION_ASSIGNMENT ( #25, #145, ( #212 ) ) ;
#77 = DIRECTION ( 'NONE',  ( 0.0000000000000000000, 1.000000000000000000, 0.0000000000000000000 ) ) ;
#78 = AXIS2_PLACEMENT_3D ( 'NONE', #134, #215, #234 ) ;
#79 = VERTEX_POINT ( 'NONE', #219 ) ;
#80 = CARTESIAN_POINT ( 'NONE',  ( 0.0000000000000000000, 0.0000000000000000000, 0.0000000000000000000 ) ) ;
#81 = CARTESIAN_POINT ( 'NONE',  ( 2.478951750578624367E-14, -3.072294104298587210E-15, 7.099999999999999645 ) ) ;
#82 = ORIENTED_EDGE ( 'NONE', *, *, #158, .F. ) ;
#83 = CC_DESIGN_APPROVAL ( #140, ( #73 ) ) ;
#84 = APPROVAL_DATE_TIME ( #184, #166 ) ;
#85 = ADVANCED_BREP_SHAPE_REPRESENTATION ( '960477', ( #224, #136, #74 ), #160 ) ;
#86 = CARTESIAN_POINT ( 'NONE',  ( 0.0000000000000000000, 0.0000000000000000000, 0.0000000000000000000 ) ) ;
#87 = EDGE_LOOP ( 'NONE', ( #261 ) ) ;
#88 = CIRCLE ( 'NONE', #253, 0.4750000000000021982 ) ;
#89 = CARTESIAN_POINT ( 'NONE',  ( 2.164718430082742680E-14, -2.682848372767780508E-15, 6.200000000000000178 ) ) ;
#90 = APPROVAL_ROLE ( '' ) ;
#91 = ADVANCED_FACE ( 'NONE', ( #28 ), #45, .T. ) ;
#92 = DIRECTION ( 'NONE',  ( 1.532283828351237467E-30, 1.000000000000000000, 4.327174794786742882E-16 ) ) ;
#93 = DIRECTION ( 'NONE',  ( 0.0000000000000000000, 1.000000000000000000, 0.0000000000000000000 ) ) ;
#94 = AXIS2_PLACEMENT_3D ( 'NONE', #43, #115, #75 ) ;
#95 = EDGE_CURVE ( 'NONE', #141, #141, #12, .T. ) ;
#96 = PLANE ( 'NONE',  #21 ) ;
#97 = APPROVAL_PERSON_ORGANIZATION ( #226, #140, #90 ) ;
#98 = EDGE_CURVE ( 'NONE', #34, #34, #153, .T. ) ;
#99 = CYLINDRICAL_SURFACE ( 'NONE', #102, 0.4750000000000011435 ) ;
#100 = VERTEX_POINT ( 'NONE', #55 ) ;
#101 = CARTESIAN_POINT ( 'NONE',  ( 1.501336975702547217E-13, 1.099999999999995426, 43.00000000000000000 ) ) ;
#102 = AXIS2_PLACEMENT_3D ( 'NONE', #80, #36, #119 ) ;
#103 =( NAMED_UNIT ( * ) PLANE_ANGLE_UNIT ( ) SI_UNIT ( $, .RADIAN. ) );
#104 =( LENGTH_UNIT ( ) NAMED_UNIT ( * ) SI_UNIT ( .MILLI., .METRE. ) );
#105 = EDGE_LOOP ( 'NONE', ( #227 ) ) ;
#106 = DATE_AND_TIME ( #67, #218 ) ;
#107 = ORIENTED_EDGE ( 'NONE', *, *, #258, .F. ) ;
#108 = AXIS2_PLACEMENT_3D ( 'NONE', #72, #155, #50 ) ;
#109 = DATE_AND_TIME ( #46, #257 ) ;
#110 = EDGE_LOOP ( 'NONE', ( #114 ) ) ;
#111 = CARTESIAN_POINT ( 'NONE',  ( 1.487371050347174683E-13, -5.216995364367725042E-15, 42.60000000000000142 ) ) ;
#112 = AXIS2_PLACEMENT_3D ( 'NONE', #197, #51, #24 ) ;
#113 = APPROVAL_STATUS ( 'not_yet_approved' ) ;
#114 = ORIENTED_EDGE ( 'NONE', *, *, #15, .T. ) ;
#115 = DIRECTION ( 'NONE',  ( -3.491481338843133355E-15, 1.224646799147353207E-16, -1.000000000000000000 ) ) ;
#116 = AXIS2_PLACEMENT_3D ( 'NONE', #89, #68, #210 ) ;
#117 = DIRECTION ( 'NONE',  ( -3.491481338843133355E-15, 4.327174794786742882E-16, -1.000000000000000000 ) ) ;
#118 = CARTESIAN_POINT ( 'NONE',  ( 2.164718430082742680E-14, 1.124819836996382806E-32, 6.200000000000000178 ) ) ;
#119 = DIRECTION ( 'NONE',  ( 1.510825004591027679E-30, 1.000000000000000000, 4.327174794786742882E-16 ) ) ;
#120 = FACE_OUTER_BOUND ( 'NONE', #20, .T. ) ;
#121 = DIRECTION ( 'NONE',  ( 3.491481338843133355E-15, -4.327174794786742882E-16, 1.000000000000000000 ) ) ;
#122 = DIRECTION ( 'NONE',  ( -5.135813185032677695E-31, -1.000000000000000000, -1.445602896647352968E-16 ) ) ;
#123 = ORIENTED_EDGE ( 'NONE', *, *, #98, .F. ) ;
#124 = PERSON ( 'UNSPECIFIED', 'UNSPECIFIED', 'UNSPECIFIED', ('UNSPECIFIED'), ('UNSPECIFIED'), ('UNSPECIFIED') ) ;
#125 = CALENDAR_DATE ( 2021, 13, 10 ) ;
#126 = ORIENTED_EDGE ( 'NONE', *, *, #158, .T. ) ;
#127 = APPROVAL_DATE_TIME ( #245, #140 ) ;
#128 = DIRECTION ( 'NONE',  ( -3.491481338843133355E-15, 1.224646799147353207E-16, -1.000000000000000000 ) ) ;
#129 = MECHANICAL_CONTEXT ( 'NONE', #38, 'mechanical' ) ;
#130 = ORIENTED_EDGE ( 'NONE', *, *, #263, .F. ) ;
#131 = ORIENTED_EDGE ( 'NONE', *, *, #98, .T. ) ;
#132 = CLOSED_SHELL ( 'NONE', ( #229, #232, #91 ) ) ;
#133 = EDGE_LOOP ( 'NONE', ( #242 ) ) ;
#134 = CARTESIAN_POINT ( 'NONE',  ( 2.164718430082742680E-14, 1.124819836996382806E-32, 6.200000000000000178 ) ) ;
#135 = AXIS2_PLACEMENT_3D ( 'NONE', #118, #170, #147 ) ;
#136 = MANIFOLD_SOLID_BREP ( 'Corps-Déplacer/Copier1[2]', #132 ) ;
#137 = ADVANCED_FACE ( 'NONE', ( #156, #207 ), #233, .T. ) ;
#138 = DIRECTION ( 'NONE',  ( 3.491481338843133355E-15, -1.224646799147353207E-16, 1.000000000000000000 ) ) ;
#139 = CONICAL_SURFACE ( 'NONE', #10, 1.100000000000000755, 0.7853981633974512766 ) ;
#140 = APPROVAL ( #44, 'UNSPECIFIED' ) ;
#141 = VERTEX_POINT ( 'NONE', #177 ) ;
#142 = PERSON_AND_ORGANIZATION ( #124, #59 ) ;
#143 = APPLICATION_PROTOCOL_DEFINITION ( 'international standard', 'config_control_design', 1994, #38 ) ;
#144 = LOCAL_TIME ( 14, 57, 26.00000000000000000, #19 ) ;
#145 = PERSON_AND_ORGANIZATION_ROLE ( 'design_owner' ) ;
#146 = CC_DESIGN_PERSON_AND_ORGANIZATION_ASSIGNMENT ( #149, #247, ( #154 ) ) ;
#147 = DIRECTION ( 'NONE',  ( -4.275831445896958607E-31, -1.000000000000000000, -1.224646799147353207E-16 ) ) ;
#148 = PRODUCT_DEFINITION_SHAPE ( 'NONE', 'NONE',  #40 ) ;
#149 = PERSON_AND_ORGANIZATION ( #124, #59 ) ;
#150 = CARTESIAN_POINT ( 'NONE',  ( 2.478951750578624051E-14, -3.035766082959412415E-15, 7.099999999999998757 ) ) ;
#151 = CALENDAR_DATE ( 2021, 13, 10 ) ;
#152 = FACE_OUTER_BOUND ( 'NONE', #201, .T. ) ;
#153 = CIRCLE ( 'NONE', #66, 1.100000000000000755 ) ;
#154 = PRODUCT_DEFINITION_FORMATION_WITH_SPECIFIED_SOURCE ( 'ANY', '', #212, .NOT_KNOWN. ) ;
#155 = DIRECTION ( 'NONE',  ( -3.491481338843133355E-15, 1.224646799147353207E-16, -1.000000000000000000 ) ) ;
#156 = FACE_BOUND ( 'NONE', #1, .T. ) ;
#157 = CARTESIAN_POINT ( 'NONE',  ( 6.036277583965433953E-16, -0.4750000000000011435, 0.1728858612764487268 ) ) ;
#158 = EDGE_CURVE ( 'NONE', #259, #259, #211, .T. ) ;
#159 = VERTEX_POINT ( 'NONE', #157 ) ;
#160 =( GEOMETRIC_REPRESENTATION_CONTEXT ( 3 ) GLOBAL_UNCERTAINTY_ASSIGNED_CONTEXT ( ( #9 ) ) GLOBAL_UNIT_ASSIGNED_CONTEXT ( ( #104, #103, #57 ) ) REPRESENTATION_CONTEXT ( 'NONE', 'WORKASPACE' ) );
#161 = CARTESIAN_POINT ( 'NONE',  ( 2.569317937189889789E-14, -3.184289629136427643E-15, 7.358819045102520384 ) ) ;
#162 = EDGE_LOOP ( 'NONE', ( #244 ) ) ;
#163 = COORDINATED_UNIVERSAL_TIME_OFFSET ( 1, 0, .AHEAD. ) ;
#164 = SECURITY_CLASSIFICATION_LEVEL ( 'unclassified' ) ;
#165 = EDGE_LOOP ( 'NONE', ( #65 ) ) ;
#166 = APPROVAL ( #113, 'UNSPECIFIED' ) ;
#167 = DATE_AND_TIME ( #228, #144 ) ;
#168 = FACE_OUTER_BOUND ( 'NONE', #162, .T. ) ;
#169 = AXIS2_PLACEMENT_3D ( 'NONE', #262, #121, #241 ) ;
#170 = DIRECTION ( 'NONE',  ( 3.491481338843133355E-15, -1.224646799147353207E-16, 1.000000000000000000 ) ) ;
#171 = CARTESIAN_POINT ( 'NONE',  ( 6.036277583965435925E-16, -2.117241166300363200E-17, 0.1728858612764487823 ) ) ;
#172 = FACE_OUTER_BOUND ( 'NONE', #61, .T. ) ;
#173 = DESIGN_CONTEXT ( 'detailed design', #54, 'design' ) ;
#174 = AXIS2_PLACEMENT_3D ( 'NONE', #161, #256, #52 ) ;
#175 = FACE_OUTER_BOUND ( 'NONE', #222, .T. ) ;
#176 = DIRECTION ( 'NONE',  ( 4.275831445896958607E-31, 1.000000000000000000, 1.224646799147353207E-16 ) ) ;
#177 = CARTESIAN_POINT ( 'NONE',  ( 2.164718430082742680E-14, -0.4750000000000038081, 6.200000000000000178 ) ) ;
#178 = FACE_OUTER_BOUND ( 'NONE', #105, .T. ) ;
#179 = VERTEX_POINT ( 'NONE', #14 ) ;
#180 = EDGE_CURVE ( 'NONE', #159, #159, #238, .T. ) ;
#181 = DATE_TIME_ROLE ( 'creation_date' ) ;
#182 = AXIS2_PLACEMENT_3D ( 'NONE', #150, #254, #92 ) ;
#183 = ORIENTED_EDGE ( 'NONE', *, *, #235, .T. ) ;
#184 = DATE_AND_TIME ( #151, #209 ) ;
#185 = ORIENTED_EDGE ( 'NONE', *, *, #258, .T. ) ;
#186 = COORDINATED_UNIVERSAL_TIME_OFFSET ( 1, 0, .AHEAD. ) ;
#187 = PERSON_AND_ORGANIZATION ( #124, #59 ) ;
#188 = APPROVAL_PERSON_ORGANIZATION ( #142, #239, #64 ) ;
#189 = CYLINDRICAL_SURFACE ( 'NONE', #32, 0.4750000000000011435 ) ;
#190 = CIRCLE ( 'NONE', #116, 0.4750000000000011435 ) ;
#191 = APPROVAL_DATE_TIME ( #167, #239 ) ;
#192 = CC_DESIGN_PERSON_AND_ORGANIZATION_ASSIGNMENT ( #221, #42, ( #154 ) ) ;
#193 = FACE_OUTER_BOUND ( 'NONE', #165, .T. ) ;
#194 = CARTESIAN_POINT ( 'NONE',  ( 1.501336975702547217E-13, -5.265981236333618470E-15, 43.00000000000000000 ) ) ;
#195 = FACE_OUTER_BOUND ( 'NONE', #22, .T. ) ;
#196 = LOCAL_TIME ( 14, 57, 26.00000000000000000, #37 ) ;
#197 = CARTESIAN_POINT ( 'NONE',  ( 4.512051801344237535E-14, -5.592020959796430817E-15, 12.92302997912989149 ) ) ;
#198 = CC_DESIGN_DATE_AND_TIME_ASSIGNMENT ( #106, #4, ( #73 ) ) ;
#199 = CC_DESIGN_PERSON_AND_ORGANIZATION_ASSIGNMENT ( #223, #2, ( #40 ) ) ;
#200 = FACE_OUTER_BOUND ( 'NONE', #133, .T. ) ;
#201 = EDGE_LOOP ( 'NONE', ( #82 ) ) ;
#202 = PERSON_AND_ORGANIZATION ( #124, #59 ) ;
#203 = COORDINATED_UNIVERSAL_TIME_OFFSET ( 1, 0, .AHEAD. ) ;
#204 = ADVANCED_FACE ( 'NONE', ( #152, #11 ), #139, .T. ) ;
#205 = ORIENTED_EDGE ( 'NONE', *, *, #235, .F. ) ;
#206 = SHAPE_DEFINITION_REPRESENTATION ( #148, #85 ) ;
#207 = FACE_OUTER_BOUND ( 'NONE', #48, .T. ) ;
#208 = DIRECTION ( 'NONE',  ( 0.0000000000000000000, 0.0000000000000000000, 1.000000000000000000 ) ) ;
#209 = LOCAL_TIME ( 14, 57, 26.00000000000000000, #203 ) ;
#210 = DIRECTION ( 'NONE',  ( 0.0000000000000000000, -1.000000000000000000, 0.0000000000000000000 ) ) ;
#211 = CIRCLE ( 'NONE', #71, 1.500000000000000666 ) ;
#212 = PRODUCT ( '960477', '960477', '', ( #129 ) ) ;
#213 = DIRECTION ( 'NONE',  ( 1.510825004591027679E-30, 1.000000000000000000, 4.327174794786742882E-16 ) ) ;
#214 = PRODUCT_RELATED_PRODUCT_CATEGORY ( 'detail', '', ( #212 ) ) ;
#215 = DIRECTION ( 'NONE',  ( 3.491481338843133355E-15, -1.224646799147353207E-16, 1.000000000000000000 ) ) ;
#216 = VERTEX_POINT ( 'NONE', #60 ) ;
#217 = ADVANCED_FACE ( 'NONE', ( #172, #195 ), #252, .T. ) ;
#218 = LOCAL_TIME ( 14, 57, 26.00000000000000000, #186 ) ;
#219 = CARTESIAN_POINT ( 'NONE',  ( 2.478951750578624367E-14, 0.4749999999999991451, 7.099999999999999645 ) ) ;
#220 = ADVANCED_FACE ( 'NONE', ( #30 ), #96, .F. ) ;
#221 = PERSON_AND_ORGANIZATION ( #124, #59 ) ;
#222 = EDGE_LOOP ( 'NONE', ( #130 ) ) ;
#223 = PERSON_AND_ORGANIZATION ( #124, #59 ) ;
#224 = MANIFOLD_SOLID_BREP ( 'Corps-Déplacer/Copier1[1]', #29 ) ;
#225 = CC_DESIGN_APPROVAL ( #166, ( #40 ) ) ;
#226 = PERSON_AND_ORGANIZATION ( #124, #59 ) ;
#227 = ORIENTED_EDGE ( 'NONE', *, *, #180, .T. ) ;
#228 = CALENDAR_DATE ( 2021, 13, 10 ) ;
#229 = ADVANCED_FACE ( 'NONE', ( #178 ), #35, .T. ) ;
#230 = CC_DESIGN_SECURITY_CLASSIFICATION ( #73, ( #154 ) ) ;
#231 = CARTESIAN_POINT ( 'NONE',  ( 0.0000000000000000000, 0.0000000000000000000, 0.0000000000000000000 ) ) ;
#232 = ADVANCED_FACE ( 'NONE', ( #200, #120 ), #99, .T. ) ;
#233 = CONICAL_SURFACE ( 'NONE', #112, 1.999999999999996225, 0.2617993877991502960 ) ;
#234 = DIRECTION ( 'NONE',  ( -4.275831445896958607E-31, -1.000000000000000000, -1.224646799147353207E-16 ) ) ;
#235 = EDGE_CURVE ( 'NONE', #100, #100, #16, .T. ) ;
#236 = CARTESIAN_POINT ( 'NONE',  ( 1.501336975702547217E-13, -5.265981236333618470E-15, 43.00000000000000000 ) ) ;
#237 = DIRECTION ( 'NONE',  ( -3.491481338843133355E-15, 4.327174794786742882E-16, -1.000000000000000000 ) ) ;
#238 = CIRCLE ( 'NONE', #240, 0.4750000000000011435 ) ;
#239 = APPROVAL ( #6, 'UNSPECIFIED' ) ;
#240 = AXIS2_PLACEMENT_3D ( 'NONE', #171, #251, #70 ) ;
#241 = DIRECTION ( 'NONE',  ( 0.0000000000000000000, -1.000000000000000000, 0.0000000000000000000 ) ) ;
#242 = ORIENTED_EDGE ( 'NONE', *, *, #95, .T. ) ;
#243 = DIRECTION ( 'NONE',  ( 1.000000000000000000, 0.0000000000000000000, 0.0000000000000000000 ) ) ;
#244 = ORIENTED_EDGE ( 'NONE', *, *, #263, .T. ) ;
#245 = DATE_AND_TIME ( #125, #196 ) ;
#246 = EDGE_LOOP ( 'NONE', ( #131 ) ) ;
#247 = PERSON_AND_ORGANIZATION_ROLE ( 'creator' ) ;
#248 = DIRECTION ( 'NONE',  ( -3.491481338843133355E-15, 1.224646799147353207E-16, -1.000000000000000000 ) ) ;
#249 = PERSON_AND_ORGANIZATION_ROLE ( 'classification_officer' ) ;
#250 = FACE_OUTER_BOUND ( 'NONE', #56, .T. ) ;
#251 = DIRECTION ( 'NONE',  ( -3.491481338843133355E-15, 1.224646799147353207E-16, -1.000000000000000000 ) ) ;
#252 = CYLINDRICAL_SURFACE ( 'NONE', #108, 1.499999999999994449 ) ;
#253 = AXIS2_PLACEMENT_3D ( 'NONE', #81, #237, #77 ) ;
#254 = DIRECTION ( 'NONE',  ( -3.491481338843133355E-15, 4.327174794786742882E-16, -1.000000000000000000 ) ) ;
#255 = CARTESIAN_POINT ( 'NONE',  ( 1.501336975702547217E-13, 8.248678804640145683E-33, 43.00000000000000000 ) ) ;
#256 = DIRECTION ( 'NONE',  ( -3.491481338843133355E-15, 4.327174794786742882E-16, -1.000000000000000000 ) ) ;
#257 = LOCAL_TIME ( 14, 57, 26.00000000000000000, #163 ) ;
#258 = EDGE_CURVE ( 'NONE', #216, #216, #49, .T. ) ;
#259 = VERTEX_POINT ( 'NONE', #18 ) ;
#260 = DIRECTION ( 'NONE',  ( -3.491481338843133355E-15, 1.224646799147353207E-16, -1.000000000000000000 ) ) ;
#261 = ORIENTED_EDGE ( 'NONE', *, *, #95, .F. ) ;
#262 = CARTESIAN_POINT ( 'NONE',  ( 3.860532513832178816E-14, -4.784559150427653273E-15, 11.05700457534545222 ) ) ;
#263 = EDGE_CURVE ( 'NONE', #79, #79, #88, .T. ) ;
ENDSEC;
END-ISO-10303-21;
