ISO-10303-21;
HEADER;
FILE_DESCRIPTION (( 'STEP AP203' ),
    '1' );
FILE_NAME ('960476.step',
    '2021-10-13T12:57:25',
    ( '' ),
    ( '' ),
    'SwSTEP 2.0',
    'SolidWorks 2019',
    '' );
FILE_SCHEMA (( 'CONFIG_CONTROL_DESIGN' ));
ENDSEC;

DATA;
#1 = EDGE_CURVE ( 'NONE', #175, #175, #246, .T. ) ;
#2 = DIRECTION ( 'NONE',  ( 4.275831445896958607E-31, 1.000000000000000000, 1.224646799147353207E-16 ) ) ;
#3 = CARTESIAN_POINT ( 'NONE',  ( 2.464573497024595788E-14, 0.4840741737109309772, 7.058819045102520562 ) ) ;
#4 = EDGE_LOOP ( 'NONE', ( #56 ) ) ;
#5 = PLANE ( 'NONE',  #134 ) ;
#6 = EDGE_LOOP ( 'NONE', ( #245 ) ) ;
#7 = DATE_AND_TIME ( #193, #234 ) ;
#8 = AXIS2_PLACEMENT_3D ( 'NONE', #210, #124, #22 ) ;
#9 = CARTESIAN_POINT ( 'NONE',  ( 2.059973989917448680E-14, 1.124819836996382806E-32, 5.900000000000000355 ) ) ;
#10 = ADVANCED_FACE ( 'NONE', ( #129 ), #224, .F. ) ;
#11 = DIRECTION ( 'NONE',  ( -3.491481338843133355E-15, 4.327174794786742882E-16, -1.000000000000000000 ) ) ;
#12 = FACE_OUTER_BOUND ( 'NONE', #109, .T. ) ;
#13 = DIRECTION ( 'NONE',  ( -3.491481338843133355E-15, 4.327174794786742882E-16, -1.000000000000000000 ) ) ;
#14 = ADVANCED_FACE ( 'NONE', ( #211 ), #5, .F. ) ;
#15 = AXIS2_PLACEMENT_3D ( 'NONE', #194, #166, #167 ) ;
#16 = AXIS2_PLACEMENT_3D ( 'NONE', #137, #258, #136 ) ;
#17 = DATE_AND_TIME ( #83, #122 ) ;
#18 = CC_DESIGN_PERSON_AND_ORGANIZATION_ASSIGNMENT ( #72, #213, ( #197 ) ) ;
#19 = VERTEX_POINT ( 'NONE', #104 ) ;
#20 = ORIENTED_EDGE ( 'NONE', *, *, #176, .F. ) ;
#21 = CARTESIAN_POINT ( 'NONE',  ( 0.0000000000000000000, 0.0000000000000000000, 0.0000000000000000000 ) ) ;
#22 = DIRECTION ( 'NONE',  ( -4.275831445896958607E-31, -1.000000000000000000, -1.224646799147353207E-16 ) ) ;
#23 = ORIENTED_EDGE ( 'NONE', *, *, #1, .T. ) ;
#24 = DIRECTION ( 'NONE',  ( 0.0000000000000000000, -1.000000000000000000, 0.0000000000000000000 ) ) ;
#25 = CC_DESIGN_PERSON_AND_ORGANIZATION_ASSIGNMENT ( #190, #87, ( #197 ) ) ;
#26 = DATE_TIME_ROLE ( 'classification_date' ) ;
#27 = DIRECTION ( 'NONE',  ( -3.491481338843133355E-15, 1.224646799147353207E-16, -1.000000000000000000 ) ) ;
#28 = DIRECTION ( 'NONE',  ( 1.532502795940627108E-30, 1.000000000000000000, 4.327174794786742389E-16 ) ) ;
#29 = AXIS2_PLACEMENT_3D ( 'NONE', #200, #11, #80 ) ;
#30 = DIRECTION ( 'NONE',  ( 3.491481338843133355E-15, -1.224646799147353207E-16, 1.000000000000000000 ) ) ;
#31 = DIRECTION ( 'NONE',  ( 0.0000000000000000000, -1.000000000000000000, 0.0000000000000000000 ) ) ;
#32 = PERSON_AND_ORGANIZATION ( #191, #111 ) ;
#33 = VERTEX_POINT ( 'NONE', #128 ) ;
#34 = EDGE_CURVE ( 'NONE', #152, #152, #184, .T. ) ;
#35 = EDGE_LOOP ( 'NONE', ( #158 ) ) ;
#36 =( NAMED_UNIT ( * ) PLANE_ANGLE_UNIT ( ) SI_UNIT ( $, .RADIAN. ) );
#37 = APPLICATION_CONTEXT ( 'configuration controlled 3d designs of mechanical parts and assemblies' ) ;
#38 = MANIFOLD_SOLID_BREP ( 'Corps-Déplacer/Copier1[1]', #177 ) ;
#39 = ORIENTED_EDGE ( 'NONE', *, *, #66, .F. ) ;
#40 = FACE_OUTER_BOUND ( 'NONE', #105, .T. ) ;
#41 = COORDINATED_UNIVERSAL_TIME_OFFSET ( 1, 0, .AHEAD. ) ;
#42 = APPROVAL_PERSON_ORGANIZATION ( #90, #47, #133 ) ;
#43 = CARTESIAN_POINT ( 'NONE',  ( 1.487371050347174683E-13, -5.216995364367725042E-15, 42.60000000000000142 ) ) ;
#44 = CARTESIAN_POINT ( 'NONE',  ( 2.059973989917448680E-14, -2.553033128924178537E-15, 5.900000000000000355 ) ) ;
#45 = APPROVAL_DATE_TIME ( #48, #237 ) ;
#46 = AXIS2_PLACEMENT_3D ( 'NONE', #215, #27, #31 ) ;
#47 = APPROVAL ( #196, 'UNSPECIFIED' ) ;
#48 = DATE_AND_TIME ( #92, #141 ) ;
#49 = EDGE_CURVE ( 'NONE', #157, #157, #113, .T. ) ;
#50 = FACE_OUTER_BOUND ( 'NONE', #6, .T. ) ;
#51 = AXIS2_PLACEMENT_3D ( 'NONE', #218, #254, #102 ) ;
#52 = FACE_OUTER_BOUND ( 'NONE', #168, .T. ) ;
#53 = FACE_OUTER_BOUND ( 'NONE', #58, .T. ) ;
#54 = APPLICATION_CONTEXT ( 'configuration controlled 3d designs of mechanical parts and assemblies' ) ;
#55 = DIRECTION ( 'NONE',  ( 1.510825004591027855E-30, 1.000000000000000000, 4.327174794786742882E-16 ) ) ;
#56 = ORIENTED_EDGE ( 'NONE', *, *, #174, .F. ) ;
#57 = FACE_OUTER_BOUND ( 'NONE', #202, .T. ) ;
#58 = EDGE_LOOP ( 'NONE', ( #65 ) ) ;
#59 = DESIGN_CONTEXT ( 'detailed design', #37, 'design' ) ;
#60 = EDGE_LOOP ( 'NONE', ( #220 ) ) ;
#61 = DIRECTION ( 'NONE',  ( 1.000000000000000000, 0.0000000000000000000, 0.0000000000000000000 ) ) ;
#62 = VERTEX_POINT ( 'NONE', #121 ) ;
#63 = ORIENTED_EDGE ( 'NONE', *, *, #176, .T. ) ;
#64 = APPLICATION_PROTOCOL_DEFINITION ( 'international standard', 'config_control_design', 1994, #37 ) ;
#65 = ORIENTED_EDGE ( 'NONE', *, *, #1, .F. ) ;
#66 = EDGE_CURVE ( 'NONE', #62, #62, #67, .T. ) ;
#67 = CIRCLE ( 'NONE', #15, 1.499999999999994005 ) ;
#68 = DIRECTION ( 'NONE',  ( -3.491481338843133355E-15, 1.224646799147353207E-16, -1.000000000000000000 ) ) ;
#69 = COORDINATED_UNIVERSAL_TIME_OFFSET ( 1, 0, .AHEAD. ) ;
#70 = ORIENTED_EDGE ( 'NONE', *, *, #66, .T. ) ;
#71 = CC_DESIGN_PERSON_AND_ORGANIZATION_ASSIGNMENT ( #186, #263, ( #195 ) ) ;
#72 = PERSON_AND_ORGANIZATION ( #191, #111 ) ;
#73 = DATE_TIME_ROLE ( 'creation_date' ) ;
#74 = CYLINDRICAL_SURFACE ( 'NONE', #255, 0.4500000000000010658 ) ;
#75 = TOROIDAL_SURFACE ( 'NONE', #178, 1.450000000000002176, 1.000000000000000000 ) ;
#76 = FACE_OUTER_BOUND ( 'NONE', #189, .T. ) ;
#77 = LOCAL_TIME ( 14, 57, 25.00000000000000000, #171 ) ;
#78 = SHAPE_DEFINITION_REPRESENTATION ( #81, #93 ) ;
#79 = DIRECTION ( 'NONE',  ( -3.491481338843133355E-15, 4.327174794786742882E-16, -1.000000000000000000 ) ) ;
#80 = DIRECTION ( 'NONE',  ( 0.0000000000000000000, 1.000000000000000000, 0.0000000000000000000 ) ) ;
#81 = PRODUCT_DEFINITION_SHAPE ( 'NONE', 'NONE',  #195 ) ;
#82 = DIRECTION ( 'NONE',  ( 3.491481338843133355E-15, -4.327174794786742882E-16, 1.000000000000000000 ) ) ;
#83 = CALENDAR_DATE ( 2021, 13, 10 ) ;
#84 = COORDINATED_UNIVERSAL_TIME_OFFSET ( 1, 0, .AHEAD. ) ;
#85 = CARTESIAN_POINT ( 'NONE',  ( 5.718578763756730121E-16, -2.005807420705608118E-17, 0.1637866054197936461 ) ) ;
#86 = ORIENTED_EDGE ( 'NONE', *, *, #49, .T. ) ;
#87 = PERSON_AND_ORGANIZATION_ROLE ( 'creator' ) ;
#88 = CARTESIAN_POINT ( 'NONE',  ( 1.501336975702547217E-13, 8.248678804640145683E-33, 43.00000000000000000 ) ) ;
#89 = AXIS2_PLACEMENT_3D ( 'NONE', #9, #30, #98 ) ;
#90 = PERSON_AND_ORGANIZATION ( #191, #111 ) ;
#91 = APPROVAL_PERSON_ORGANIZATION ( #32, #212, #225 ) ;
#92 = CALENDAR_DATE ( 2021, 13, 10 ) ;
#93 = ADVANCED_BREP_SHAPE_REPRESENTATION ( '960476', ( #38, #131, #204 ), #262 ) ;
#94 = CONICAL_SURFACE ( 'NONE', #251, 1.999999999999995781, 0.2617993877991502960 ) ;
#95 = DIRECTION ( 'NONE',  ( 0.0000000000000000000, 1.000000000000000000, 0.0000000000000000000 ) ) ;
#96 = DIRECTION ( 'NONE',  ( 4.275831445896958607E-31, 1.000000000000000000, 1.224646799147353207E-16 ) ) ;
#97 = CONICAL_SURFACE ( 'NONE', #241, 1.499999999999985789, 1.221730476396026610 ) ;
#98 = DIRECTION ( 'NONE',  ( -4.275831445896958607E-31, -1.000000000000000000, -1.224646799147353207E-16 ) ) ;
#99 = SECURITY_CLASSIFICATION ( '', '', #112 ) ;
#100 = PRODUCT_RELATED_PRODUCT_CATEGORY ( 'detail', '', ( #119 ) ) ;
#101 = CARTESIAN_POINT ( 'NONE',  ( 0.0000000000000000000, 0.0000000000000000000, 0.0000000000000000000 ) ) ;
#102 = DIRECTION ( 'NONE',  ( 0.0000000000000000000, 1.000000000000000000, 0.0000000000000000000 ) ) ;
#103 = APPROVAL_DATE_TIME ( #17, #212 ) ;
#104 = CARTESIAN_POINT ( 'NONE',  ( 1.501336975702547217E-13, 1.099999999999995426, 43.00000000000000000 ) ) ;
#105 = EDGE_LOOP ( 'NONE', ( #20 ) ) ;
#106 = CARTESIAN_POINT ( 'NONE',  ( 2.059973989917448680E-14, -0.4500000000000036193, 5.900000000000000355 ) ) ;
#107 = EDGE_LOOP ( 'NONE', ( #229 ) ) ;
#108 = CC_DESIGN_SECURITY_CLASSIFICATION ( #99, ( #197 ) ) ;
#109 = EDGE_LOOP ( 'NONE', ( #70 ) ) ;
#110 = CALENDAR_DATE ( 2021, 13, 10 ) ;
#111 = ORGANIZATION ( 'UNSPECIFIED', 'UNSPECIFIED', '' ) ;
#112 = SECURITY_CLASSIFICATION_LEVEL ( 'unclassified' ) ;
#113 = CIRCLE ( 'NONE', #260, 0.4500000000000010658 ) ;
#114 = CARTESIAN_POINT ( 'NONE',  ( 0.0000000000000000000, 0.0000000000000000000, 0.0000000000000000000 ) ) ;
#115 = FACE_OUTER_BOUND ( 'NONE', #60, .T. ) ;
#116 = CC_DESIGN_DATE_AND_TIME_ASSIGNMENT ( #7, #26, ( #99 ) ) ;
#117 = CONICAL_SURFACE ( 'NONE', #16, 1.100000000000000755, 0.7853981633974512766 ) ;
#118 = PLANE ( 'NONE',  #89 ) ;
#119 = PRODUCT ( '960476', '960476', '', ( #185 ) ) ;
#120 = CARTESIAN_POINT ( 'NONE',  ( 1.906192921252219839E-15, -6.686024735685277809E-17, 0.5459553513993053997 ) ) ;
#121 = CARTESIAN_POINT ( 'NONE',  ( 3.788364038042487057E-14, -1.499999999999998668, 10.85030584553467037 ) ) ;
#122 = LOCAL_TIME ( 14, 57, 25.00000000000000000, #41 ) ;
#123 = CC_DESIGN_APPROVAL ( #237, ( #99 ) ) ;
#124 = DIRECTION ( 'NONE',  ( 3.491481338843133355E-15, -1.224646799147353207E-16, 1.000000000000000000 ) ) ;
#125 = ORIENTED_EDGE ( 'NONE', *, *, #252, .F. ) ;
#126 = AXIS2_PLACEMENT_3D ( 'NONE', #43, #172, #144 ) ;
#127 = CC_DESIGN_APPROVAL ( #47, ( #197 ) ) ;
#128 = CARTESIAN_POINT ( 'NONE',  ( 2.374207310413330366E-14, 0.4499999999999992339, 6.799999999999999822 ) ) ;
#129 = FACE_OUTER_BOUND ( 'NONE', #206, .T. ) ;
#130 = DIRECTION ( 'NONE',  ( -3.491481338843133355E-15, 1.224646799147353207E-16, -1.000000000000000000 ) ) ;
#131 = MANIFOLD_SOLID_BREP ( 'Corps-Déplacer/Copier1[2]', #239 ) ;
#132 = DATE_AND_TIME ( #110, #77 ) ;
#133 = APPROVAL_ROLE ( '' ) ;
#134 = AXIS2_PLACEMENT_3D ( 'NONE', #88, #170, #2 ) ;
#135 = CYLINDRICAL_SURFACE ( 'NONE', #140, 0.4500000000000010658 ) ;
#136 = DIRECTION ( 'NONE',  ( 0.0000000000000000000, 1.000000000000000000, 0.0000000000000000000 ) ) ;
#137 = CARTESIAN_POINT ( 'NONE',  ( 1.501336975702547217E-13, -5.265981236333618470E-15, 43.00000000000000000 ) ) ;
#138 = CARTESIAN_POINT ( 'NONE',  ( 0.0000000000000000000, 0.0000000000000000000, 0.0000000000000000000 ) ) ;
#139 = DIRECTION ( 'NONE',  ( 0.0000000000000000000, -1.000000000000000000, 0.0000000000000000000 ) ) ;
#140 = AXIS2_PLACEMENT_3D ( 'NONE', #114, #259, #214 ) ;
#141 = LOCAL_TIME ( 14, 57, 25.00000000000000000, #230 ) ;
#142 = EDGE_LOOP ( 'NONE', ( #125 ) ) ;
#143 = CC_DESIGN_DATE_AND_TIME_ASSIGNMENT ( #250, #73, ( #195 ) ) ;
#144 = DIRECTION ( 'NONE',  ( 0.0000000000000000000, 1.000000000000000000, 0.0000000000000000000 ) ) ;
#145 = APPROVAL_STATUS ( 'not_yet_approved' ) ;
#146 = ADVANCED_FACE ( 'NONE', ( #40, #236 ), #75, .F. ) ;
#147 = DIRECTION ( 'NONE',  ( -4.279844320860514387E-31, -1.000000000000000000, -1.204669080539446632E-16 ) ) ;
#148 = PERSON_AND_ORGANIZATION ( #191, #111 ) ;
#149 = ORIENTED_EDGE ( 'NONE', *, *, #34, .T. ) ;
#150 = CIRCLE ( 'NONE', #46, 0.4500000000000010658 ) ;
#151 = APPROVAL_STATUS ( 'not_yet_approved' ) ;
#152 = VERTEX_POINT ( 'NONE', #232 ) ;
#153 = LOCAL_TIME ( 14, 57, 25.00000000000000000, #84 ) ;
#154 = CC_DESIGN_APPROVAL ( #212, ( #195 ) ) ;
#155 = DIRECTION ( 'NONE',  ( -3.491481338843133355E-15, 1.224646799147353207E-16, -1.000000000000000000 ) ) ;
#156 = DIRECTION ( 'NONE',  ( -5.135813185032677695E-31, -1.000000000000000000, -1.445602896647352968E-16 ) ) ;
#157 = VERTEX_POINT ( 'NONE', #238 ) ;
#158 = ORIENTED_EDGE ( 'NONE', *, *, #256, .F. ) ;
#159 = FACE_BOUND ( 'NONE', #35, .T. ) ;
#160 = CC_DESIGN_PERSON_AND_ORGANIZATION_ASSIGNMENT ( #208, #244, ( #119 ) ) ;
#161 = VERTEX_POINT ( 'NONE', #106 ) ;
#162 = CALENDAR_DATE ( 2021, 13, 10 ) ;
#163 = EDGE_LOOP ( 'NONE', ( #192 ) ) ;
#164 =( NAMED_UNIT ( * ) SI_UNIT ( $, .STERADIAN. ) SOLID_ANGLE_UNIT ( ) );
#165 = CC_DESIGN_PERSON_AND_ORGANIZATION_ASSIGNMENT ( #249, #248, ( #99 ) ) ;
#166 = DIRECTION ( 'NONE',  ( 3.491481338843133355E-15, -4.327174794786742882E-16, 1.000000000000000000 ) ) ;
#167 = DIRECTION ( 'NONE',  ( 0.0000000000000000000, -1.000000000000000000, 0.0000000000000000000 ) ) ;
#168 = EDGE_LOOP ( 'NONE', ( #63 ) ) ;
#169 = CIRCLE ( 'NONE', #51, 1.100000000000000755 ) ;
#170 = DIRECTION ( 'NONE',  ( -3.491481338843133355E-15, 1.224646799147353207E-16, -1.000000000000000000 ) ) ;
#171 = COORDINATED_UNIVERSAL_TIME_OFFSET ( 1, 0, .AHEAD. ) ;
#172 = DIRECTION ( 'NONE',  ( -3.491481338843133355E-15, 1.224646799147353207E-16, -1.000000000000000000 ) ) ;
#173 = APPROVAL_DATE_TIME ( #132, #47 ) ;
#174 = EDGE_CURVE ( 'NONE', #19, #19, #169, .T. ) ;
#175 = VERTEX_POINT ( 'NONE', #253 ) ;
#176 = EDGE_CURVE ( 'NONE', #33, #33, #221, .T. ) ;
#177 = CLOSED_SHELL ( 'NONE', ( #209, #243, #14, #228, #231, #146, #10 ) ) ;
#178 = AXIS2_PLACEMENT_3D ( 'NONE', #235, #13, #28 ) ;
#179 = FACE_OUTER_BOUND ( 'NONE', #142, .T. ) ;
#180 = CARTESIAN_POINT ( 'NONE',  ( 4.439883325554545776E-14, -5.502578806421266816E-15, 12.71633124931910963 ) ) ;
#181 = FACE_OUTER_BOUND ( 'NONE', #205, .T. ) ;
#182 = UNCERTAINTY_MEASURE_WITH_UNIT (LENGTH_MEASURE( 1.000000000000000082E-05 ), #203, 'distance_accuracy_value', 'NONE');
#183 = ADVANCED_FACE ( 'NONE', ( #179 ), #118, .T. ) ;
#184 = CIRCLE ( 'NONE', #226, 0.4500000000000010658 ) ;
#185 = MECHANICAL_CONTEXT ( 'NONE', #54, 'mechanical' ) ;
#186 = PERSON_AND_ORGANIZATION ( #191, #111 ) ;
#187 = ADVANCED_FACE ( 'NONE', ( #50, #115 ), #74, .T. ) ;
#188 = VERTEX_POINT ( 'NONE', #3 ) ;
#189 = EDGE_LOOP ( 'NONE', ( #39 ) ) ;
#190 = PERSON_AND_ORGANIZATION ( #191, #111 ) ;
#191 = PERSON ( 'UNSPECIFIED', 'UNSPECIFIED', 'UNSPECIFIED', ('UNSPECIFIED'), ('UNSPECIFIED'), ('UNSPECIFIED') ) ;
#192 = ORIENTED_EDGE ( 'NONE', *, *, #174, .T. ) ;
#193 = CALENDAR_DATE ( 2021, 13, 10 ) ;
#194 = CARTESIAN_POINT ( 'NONE',  ( 3.788364038042487057E-14, -4.695116997052489273E-15, 10.85030584553467037 ) ) ;
#195 = PRODUCT_DEFINITION ( 'UNKNOWN', '', #197, #59 ) ;
#196 = APPROVAL_STATUS ( 'not_yet_approved' ) ;
#197 = PRODUCT_DEFINITION_FORMATION_WITH_SPECIFIED_SOURCE ( 'ANY', '', #119, .NOT_KNOWN. ) ;
#198 = DIRECTION ( 'NONE',  ( -3.491481338843133355E-15, 4.327174794786742882E-16, -1.000000000000000000 ) ) ;
#199 = FACE_OUTER_BOUND ( 'NONE', #107, .T. ) ;
#200 = CARTESIAN_POINT ( 'NONE',  ( 2.464573497024595788E-14, -3.054474385292825278E-15, 7.058819045102520562 ) ) ;
#201 = AXIS2_PLACEMENT_3D ( 'NONE', #257, #198, #95 ) ;
#202 = EDGE_LOOP ( 'NONE', ( #149 ) ) ;
#203 =( LENGTH_UNIT ( ) NAMED_UNIT ( * ) SI_UNIT ( .MILLI., .METRE. ) );
#204 = AXIS2_PLACEMENT_3D ( 'NONE', #21, #223, #61 ) ;
#205 = EDGE_LOOP ( 'NONE', ( #23 ) ) ;
#206 = EDGE_LOOP ( 'NONE', ( #86 ) ) ;
#207 = APPLICATION_PROTOCOL_DEFINITION ( 'international standard', 'config_control_design', 1994, #54 ) ;
#208 = PERSON_AND_ORGANIZATION ( #191, #111 ) ;
#209 = ADVANCED_FACE ( 'NONE', ( #12, #181 ), #240, .T. ) ;
#210 = CARTESIAN_POINT ( 'NONE',  ( 2.059973989917448680E-14, 1.124819836996382806E-32, 5.900000000000000355 ) ) ;
#211 = FACE_OUTER_BOUND ( 'NONE', #4, .T. ) ;
#212 = APPROVAL ( #145, 'UNSPECIFIED' ) ;
#213 = PERSON_AND_ORGANIZATION_ROLE ( 'design_supplier' ) ;
#214 = DIRECTION ( 'NONE',  ( 1.510825004591027855E-30, 1.000000000000000000, 4.327174794786742882E-16 ) ) ;
#215 = CARTESIAN_POINT ( 'NONE',  ( 2.059973989917448680E-14, -2.553033128924178537E-15, 5.900000000000000355 ) ) ;
#216 = DIRECTION ( 'NONE',  ( 3.491481338843133355E-15, -1.224646799147353207E-16, 1.000000000000000000 ) ) ;
#217 = ADVANCED_FACE ( 'NONE', ( #57 ), #97, .T. ) ;
#218 = CARTESIAN_POINT ( 'NONE',  ( 1.501336975702547217E-13, -5.265981236333618470E-15, 43.00000000000000000 ) ) ;
#219 = FACE_BOUND ( 'NONE', #163, .T. ) ;
#220 = ORIENTED_EDGE ( 'NONE', *, *, #34, .F. ) ;
#221 = CIRCLE ( 'NONE', #201, 0.4500000000000021760 ) ;
#222 = ORIENTED_EDGE ( 'NONE', *, *, #256, .T. ) ;
#223 = DIRECTION ( 'NONE',  ( 0.0000000000000000000, 0.0000000000000000000, 1.000000000000000000 ) ) ;
#224 = PLANE ( 'NONE',  #8 ) ;
#225 = APPROVAL_ROLE ( '' ) ;
#226 = AXIS2_PLACEMENT_3D ( 'NONE', #85, #68, #147 ) ;
#227 = APPROVAL_ROLE ( '' ) ;
#228 = ADVANCED_FACE ( 'NONE', ( #52, #199 ), #135, .T. ) ;
#229 = ORIENTED_EDGE ( 'NONE', *, *, #49, .F. ) ;
#230 = COORDINATED_UNIVERSAL_TIME_OFFSET ( 1, 0, .AHEAD. ) ;
#231 = ADVANCED_FACE ( 'NONE', ( #159, #76 ), #94, .T. ) ;
#232 = CARTESIAN_POINT ( 'NONE',  ( 5.718578763756728148E-16, -0.4500000000000010658, 0.1637866054197935906 ) ) ;
#233 = AXIS2_PLACEMENT_3D ( 'NONE', #101, #155, #96 ) ;
#234 = LOCAL_TIME ( 14, 57, 25.00000000000000000, #69 ) ;
#235 = CARTESIAN_POINT ( 'NONE',  ( 2.374207310413330366E-14, -3.035766082959412415E-15, 6.799999999999998934 ) ) ;
#236 = FACE_OUTER_BOUND ( 'NONE', #247, .T. ) ;
#237 = APPROVAL ( #151, 'UNSPECIFIED' ) ;
#238 = CARTESIAN_POINT ( 'NONE',  ( 2.059973989917448680E-14, -0.4500000000000036193, 5.900000000000000355 ) ) ;
#239 = CLOSED_SHELL ( 'NONE', ( #217, #187, #183 ) ) ;
#240 = CYLINDRICAL_SURFACE ( 'NONE', #233, 1.499999999999994005 ) ;
#241 = AXIS2_PLACEMENT_3D ( 'NONE', #120, #216, #156 ) ;
#242 = APPROVAL_PERSON_ORGANIZATION ( #148, #237, #227 ) ;
#243 = ADVANCED_FACE ( 'NONE', ( #53, #219 ), #117, .T. ) ;
#244 = PERSON_AND_ORGANIZATION_ROLE ( 'design_owner' ) ;
#245 = ORIENTED_EDGE ( 'NONE', *, *, #252, .T. ) ;
#246 = CIRCLE ( 'NONE', #126, 1.500000000000000666 ) ;
#247 = EDGE_LOOP ( 'NONE', ( #222 ) ) ;
#248 = PERSON_AND_ORGANIZATION_ROLE ( 'classification_officer' ) ;
#249 = PERSON_AND_ORGANIZATION ( #191, #111 ) ;
#250 = DATE_AND_TIME ( #162, #153 ) ;
#251 = AXIS2_PLACEMENT_3D ( 'NONE', #180, #82, #139 ) ;
#252 = EDGE_CURVE ( 'NONE', #161, #161, #150, .T. ) ;
#253 = CARTESIAN_POINT ( 'NONE',  ( 1.487371050347174683E-13, 1.499999999999995559, 42.60000000000000142 ) ) ;
#254 = DIRECTION ( 'NONE',  ( -3.491481338843133355E-15, 1.224646799147353207E-16, -1.000000000000000000 ) ) ;
#255 = AXIS2_PLACEMENT_3D ( 'NONE', #138, #79, #55 ) ;
#256 = EDGE_CURVE ( 'NONE', #188, #188, #261, .T. ) ;
#257 = CARTESIAN_POINT ( 'NONE',  ( 2.374207310413330366E-14, -2.942478860454984844E-15, 6.799999999999999822 ) ) ;
#258 = DIRECTION ( 'NONE',  ( -3.491481338843133355E-15, 1.224646799147353207E-16, -1.000000000000000000 ) ) ;
#259 = DIRECTION ( 'NONE',  ( -3.491481338843133355E-15, 4.327174794786742882E-16, -1.000000000000000000 ) ) ;
#260 = AXIS2_PLACEMENT_3D ( 'NONE', #44, #130, #24 ) ;
#261 = CIRCLE ( 'NONE', #29, 0.4840741737109340304 ) ;
#262 =( GEOMETRIC_REPRESENTATION_CONTEXT ( 3 ) GLOBAL_UNCERTAINTY_ASSIGNED_CONTEXT ( ( #182 ) ) GLOBAL_UNIT_ASSIGNED_CONTEXT ( ( #203, #36, #164 ) ) REPRESENTATION_CONTEXT ( 'NONE', 'WORKASPACE' ) );
#263 = PERSON_AND_ORGANIZATION_ROLE ( 'creator' ) ;
ENDSEC;
END-ISO-10303-21;
