ISO-10303-21;
HEADER;
FILE_DESCRIPTION (( 'STEP AP203' ),
    '1' );
FILE_NAME ('960475.step',
    '2021-10-13T12:57:25',
    ( '' ),
    ( '' ),
    'SwSTEP 2.0',
    'SolidWorks 2019',
    '' );
FILE_SCHEMA (( 'CONFIG_CONTROL_DESIGN' ));
ENDSEC;

DATA;
#1 = CARTESIAN_POINT ( 'NONE',  ( 1.920314736363723345E-14, 1.124819836996382806E-32, 5.500000000000000000 ) ) ;
#2 = ADVANCED_FACE ( 'NONE', ( #13, #159 ), #199, .T. ) ;
#3 = AXIS2_PLACEMENT_3D ( 'NONE', #21, #103, #127 ) ;
#4 = PRODUCT_DEFINITION_FORMATION_WITH_SPECIFIED_SOURCE ( 'ANY', '', #188, .NOT_KNOWN. ) ;
#5 = EDGE_CURVE ( 'NONE', #104, #104, #141, .T. ) ;
#6 = LOCAL_TIME ( 14, 57, 25.00000000000000000, #96 ) ;
#7 = CALENDAR_DATE ( 2021, 13, 10 ) ;
#8 = DESIGN_CONTEXT ( 'detailed design', #80, 'design' ) ;
#9 = ORGANIZATION ( 'UNSPECIFIED', 'UNSPECIFIED', '' ) ;
#10 = ORIENTED_EDGE ( 'NONE', *, *, #126, .F. ) ;
#11 = PERSON_AND_ORGANIZATION_ROLE ( 'classification_officer' ) ;
#12 = EDGE_LOOP ( 'NONE', ( #173 ) ) ;
#13 = FACE_OUTER_BOUND ( 'NONE', #135, .T. ) ;
#14 = CALENDAR_DATE ( 2021, 13, 10 ) ;
#15 = CIRCLE ( 'NONE', #202, 0.4250000000000009881 ) ;
#16 = DIRECTION ( 'NONE',  ( -3.491481338843133355E-15, 1.224646799147353207E-16, -1.000000000000000000 ) ) ;
#17 = CALENDAR_DATE ( 2021, 13, 10 ) ;
#18 = CC_DESIGN_PERSON_AND_ORGANIZATION_ASSIGNMENT ( #71, #253, ( #4 ) ) ;
#19 = ORIENTED_EDGE ( 'NONE', *, *, #109, .T. ) ;
#20 = CARTESIAN_POINT ( 'NONE',  ( 1.906192921252219839E-15, -6.686024735685277809E-17, 0.5459553513993053997 ) ) ;
#21 = CARTESIAN_POINT ( 'NONE',  ( 3.681280748864365858E-14, -4.562403095729458474E-15, 10.54360711572389597 ) ) ;
#22 = CARTESIAN_POINT ( 'NONE',  ( 0.0000000000000000000, 0.0000000000000000000, 0.0000000000000000000 ) ) ;
#23 = ORIENTED_EDGE ( 'NONE', *, *, #105, .F. ) ;
#24 = PLANE ( 'NONE',  #233 ) ;
#25 = AXIS2_PLACEMENT_3D ( 'NONE', #64, #226, #101 ) ;
#26 = CIRCLE ( 'NONE', #245, 0.4250000000000019873 ) ;
#27 = PRODUCT_DEFINITION_SHAPE ( 'NONE', 'NONE',  #67 ) ;
#28 = DIRECTION ( 'NONE',  ( 0.0000000000000000000, 0.0000000000000000000, 1.000000000000000000 ) ) ;
#29 = EDGE_LOOP ( 'NONE', ( #196 ) ) ;
#30 = APPROVAL_PERSON_ORGANIZATION ( #38, #241, #156 ) ;
#31 = DATE_AND_TIME ( #74, #6 ) ;
#32 = PERSON_AND_ORGANIZATION ( #168, #9 ) ;
#33 = APPROVAL_DATE_TIME ( #189, #212 ) ;
#34 = ORIENTED_EDGE ( 'NONE', *, *, #137, .T. ) ;
#35 = CC_DESIGN_APPROVAL ( #241, ( #225 ) ) ;
#36 = EDGE_LOOP ( 'NONE', ( #111 ) ) ;
#37 = APPROVAL ( #48, 'UNSPECIFIED' ) ;
#38 = PERSON_AND_ORGANIZATION ( #168, #9 ) ;
#39 = DIRECTION ( 'NONE',  ( -3.491481338843133355E-15, 1.224646799147353207E-16, -1.000000000000000000 ) ) ;
#40 = FACE_OUTER_BOUND ( 'NONE', #72, .T. ) ;
#41 = APPROVAL_DATE_TIME ( #220, #241 ) ;
#42 = EDGE_LOOP ( 'NONE', ( #246 ) ) ;
#43 = DIRECTION ( 'NONE',  ( -3.491481338843133355E-15, 1.224646799147353207E-16, -1.000000000000000000 ) ) ;
#44 = DIRECTION ( 'NONE',  ( 1.532726278325674804E-30, 1.000000000000000000, 4.327174794786742882E-16 ) ) ;
#45 = VERTEX_POINT ( 'NONE', #221 ) ;
#46 = PRODUCT_RELATED_PRODUCT_CATEGORY ( 'detail', '', ( #188 ) ) ;
#47 = APPROVAL_DATE_TIME ( #31, #37 ) ;
#48 = APPROVAL_STATUS ( 'not_yet_approved' ) ;
#49 = CLOSED_SHELL ( 'NONE', ( #94, #2, #235, #85, #194, #91, #161 ) ) ;
#50 = CARTESIAN_POINT ( 'NONE',  ( 0.0000000000000000000, 0.0000000000000000000, 0.0000000000000000000 ) ) ;
#51 = DIRECTION ( 'NONE',  ( 1.000000000000000000, 0.0000000000000000000, 0.0000000000000000000 ) ) ;
#52 = EDGE_CURVE ( 'NONE', #244, #244, #261, .T. ) ;
#53 = EDGE_LOOP ( 'NONE', ( #214 ) ) ;
#54 = CIRCLE ( 'NONE', #215, 0.4590741737109337861 ) ;
#55 = DATE_AND_TIME ( #14, #147 ) ;
#56 = VERTEX_POINT ( 'NONE', #123 ) ;
#57 = CARTESIAN_POINT ( 'NONE',  ( 2.234548056859605347E-14, -2.818925648462311528E-15, 6.400000000000000355 ) ) ;
#58 = VERTEX_POINT ( 'NONE', #197 ) ;
#59 = DIRECTION ( 'NONE',  ( 0.0000000000000000000, 1.000000000000000000, 0.0000000000000000000 ) ) ;
#60 = CARTESIAN_POINT ( 'NONE',  ( 2.234548056859605347E-14, 0.4249999999999992117, 6.400000000000000355 ) ) ;
#61 = CIRCLE ( 'NONE', #131, 1.500000000000000666 ) ;
#62 = PLANE ( 'NONE',  #149 ) ;
#63 = CARTESIAN_POINT ( 'NONE',  ( 1.501336975702547217E-13, -5.265981236333618470E-15, 43.00000000000000000 ) ) ;
#64 = CARTESIAN_POINT ( 'NONE',  ( 0.0000000000000000000, 0.0000000000000000000, 0.0000000000000000000 ) ) ;
#65 = DIRECTION ( 'NONE',  ( -3.491481338843133355E-15, 4.327174794786742882E-16, -1.000000000000000000 ) ) ;
#66 = CC_DESIGN_DATE_AND_TIME_ASSIGNMENT ( #55, #178, ( #225 ) ) ;
#67 = PRODUCT_DEFINITION ( 'UNKNOWN', '', #4, #8 ) ;
#68 = PERSON_AND_ORGANIZATION ( #168, #9 ) ;
#69 = CC_DESIGN_PERSON_AND_ORGANIZATION_ASSIGNMENT ( #153, #11, ( #225 ) ) ;
#70 = PERSON_AND_ORGANIZATION ( #168, #9 ) ;
#71 = PERSON_AND_ORGANIZATION ( #168, #9 ) ;
#72 = EDGE_LOOP ( 'NONE', ( #115 ) ) ;
#73 = ADVANCED_FACE ( 'NONE', ( #106 ), #62, .T. ) ;
#74 = CALENDAR_DATE ( 2021, 13, 10 ) ;
#75 = ORIENTED_EDGE ( 'NONE', *, *, #174, .T. ) ;
#76 = CARTESIAN_POINT ( 'NONE',  ( 5.400879943548020372E-16, -1.894373675110850879E-17, 0.1546873495631383433 ) ) ;
#77 = DIRECTION ( 'NONE',  ( 0.0000000000000000000, -1.000000000000000000, 0.0000000000000000000 ) ) ;
#78 = APPROVAL_STATUS ( 'not_yet_approved' ) ;
#79 = EDGE_LOOP ( 'NONE', ( #152 ) ) ;
#80 = APPLICATION_CONTEXT ( 'configuration controlled 3d designs of mechanical parts and assemblies' ) ;
#81 = DIRECTION ( 'NONE',  ( 3.491481338843133355E-15, -1.224646799147353207E-16, 1.000000000000000000 ) ) ;
#82 = APPROVAL_PERSON_ORGANIZATION ( #32, #37, #113 ) ;
#83 = DIRECTION ( 'NONE',  ( -3.491481338843133355E-15, 1.224646799147353207E-16, -1.000000000000000000 ) ) ;
#84 = CARTESIAN_POINT ( 'NONE',  ( 3.681280748864365858E-14, -1.499999999999998446, 10.54360711572389597 ) ) ;
#85 = ADVANCED_FACE ( 'NONE', ( #166, #139 ), #259, .T. ) ;
#86 = CARTESIAN_POINT ( 'NONE',  ( 1.501336975702547217E-13, -5.265981236333618470E-15, 43.00000000000000000 ) ) ;
#87 = FACE_OUTER_BOUND ( 'NONE', #53, .T. ) ;
#88 = CONICAL_SURFACE ( 'NONE', #238, 1.999999999999995337, 0.2617993877991504625 ) ;
#89 = SECURITY_CLASSIFICATION_LEVEL ( 'unclassified' ) ;
#90 = AXIS2_PLACEMENT_3D ( 'NONE', #201, #16, #176 ) ;
#91 = ADVANCED_FACE ( 'NONE', ( #207, #243 ), #187, .F. ) ;
#92 = DATE_AND_TIME ( #7, #219 ) ;
#93 = APPROVAL_STATUS ( 'not_yet_approved' ) ;
#94 = ADVANCED_FACE ( 'NONE', ( #205, #180 ), #179, .T. ) ;
#95 = CC_DESIGN_SECURITY_CLASSIFICATION ( #225, ( #4 ) ) ;
#96 = COORDINATED_UNIVERSAL_TIME_OFFSET ( 1, 0, .AHEAD. ) ;
#97 =( NAMED_UNIT ( * ) SI_UNIT ( $, .STERADIAN. ) SOLID_ANGLE_UNIT ( ) );
#98 = DIRECTION ( 'NONE',  ( -3.491481338843133355E-15, 1.224646799147353207E-16, -1.000000000000000000 ) ) ;
#99 = LOCAL_TIME ( 14, 57, 25.00000000000000000, #204 ) ;
#100 = CC_DESIGN_PERSON_AND_ORGANIZATION_ASSIGNMENT ( #68, #251, ( #188 ) ) ;
#101 = DIRECTION ( 'NONE',  ( 1.510825004591027855E-30, 1.000000000000000000, 4.327174794786743375E-16 ) ) ;
#102 = CARTESIAN_POINT ( 'NONE',  ( 1.920314736363723345E-14, -2.379946137132708585E-15, 5.500000000000000000 ) ) ;
#103 = DIRECTION ( 'NONE',  ( 3.491481338843133355E-15, -4.327174794786742882E-16, 1.000000000000000000 ) ) ;
#104 = VERTEX_POINT ( 'NONE', #158 ) ;
#105 = EDGE_CURVE ( 'NONE', #239, #239, #61, .T. ) ;
#106 = FACE_OUTER_BOUND ( 'NONE', #29, .T. ) ;
#107 = MANIFOLD_SOLID_BREP ( 'Corps-Déplacer/Copier1[2]', #200 ) ;
#108 = DIRECTION ( 'NONE',  ( 1.510825004591027855E-30, 1.000000000000000000, 4.327174794786743375E-16 ) ) ;
#109 = EDGE_CURVE ( 'NONE', #56, #56, #54, .T. ) ;
#110 = CONICAL_SURFACE ( 'NONE', #171, 1.499999999999985789, 1.221730476396026610 ) ;
#111 = ORIENTED_EDGE ( 'NONE', *, *, #105, .T. ) ;
#112 = APPLICATION_PROTOCOL_DEFINITION ( 'international standard', 'config_control_design', 1994, #80 ) ;
#113 = APPROVAL_ROLE ( '' ) ;
#114 = CC_DESIGN_PERSON_AND_ORGANIZATION_ASSIGNMENT ( #192, #170, ( #4 ) ) ;
#115 = ORIENTED_EDGE ( 'NONE', *, *, #133, .F. ) ;
#116 = ORIENTED_EDGE ( 'NONE', *, *, #109, .F. ) ;
#117 = CIRCLE ( 'NONE', #213, 1.100000000000000755 ) ;
#118 = EDGE_LOOP ( 'NONE', ( #75 ) ) ;
#119 = SHAPE_DEFINITION_REPRESENTATION ( #27, #185 ) ;
#120 = DIRECTION ( 'NONE',  ( 0.0000000000000000000, 1.000000000000000000, 0.0000000000000000000 ) ) ;
#121 = DIRECTION ( 'NONE',  ( 4.275831445896958607E-31, 1.000000000000000000, 1.224646799147353207E-16 ) ) ;
#122 = DIRECTION ( 'NONE',  ( 4.275831445896958607E-31, 1.000000000000000000, 1.224646799147353207E-16 ) ) ;
#123 = CARTESIAN_POINT ( 'NONE',  ( 2.324914243470870770E-14, 0.4590741737109308995, 6.658819045102521983 ) ) ;
#124 = CC_DESIGN_APPROVAL ( #37, ( #67 ) ) ;
#125 = DIRECTION ( 'NONE',  ( -5.135813185032677695E-31, -1.000000000000000000, -1.445602896647352968E-16 ) ) ;
#126 = EDGE_CURVE ( 'NONE', #138, #138, #26, .T. ) ;
#127 = DIRECTION ( 'NONE',  ( 0.0000000000000000000, -1.000000000000000000, 0.0000000000000000000 ) ) ;
#128 = FACE_OUTER_BOUND ( 'NONE', #231, .T. ) ;
#129 = DIRECTION ( 'NONE',  ( 0.0000000000000000000, 1.000000000000000000, 0.0000000000000000000 ) ) ;
#130 = DIRECTION ( 'NONE',  ( -4.275831445896958607E-31, -1.000000000000000000, -1.224646799147353207E-16 ) ) ;
#131 = AXIS2_PLACEMENT_3D ( 'NONE', #258, #83, #59 ) ;
#132 = COORDINATED_UNIVERSAL_TIME_OFFSET ( 1, 0, .AHEAD. ) ;
#133 = EDGE_CURVE ( 'NONE', #165, #165, #15, .T. ) ;
#134 = COORDINATED_UNIVERSAL_TIME_OFFSET ( 1, 0, .AHEAD. ) ;
#135 = EDGE_LOOP ( 'NONE', ( #23 ) ) ;
#136 = EDGE_LOOP ( 'NONE', ( #252 ) ) ;
#137 = EDGE_CURVE ( 'NONE', #45, #45, #151, .T. ) ;
#138 = VERTEX_POINT ( 'NONE', #60 ) ;
#139 = FACE_OUTER_BOUND ( 'NONE', #148, .T. ) ;
#140 = DIRECTION ( 'NONE',  ( -4.275831445896958607E-31, -1.000000000000000000, -1.224646799147353207E-16 ) ) ;
#141 = CIRCLE ( 'NONE', #232, 0.4250000000000009881 ) ;
#142 =( NAMED_UNIT ( * ) PLANE_ANGLE_UNIT ( ) SI_UNIT ( $, .RADIAN. ) );
#143 = CC_DESIGN_APPROVAL ( #212, ( #4 ) ) ;
#144 = FACE_OUTER_BOUND ( 'NONE', #249, .T. ) ;
#145 = DIRECTION ( 'NONE',  ( -3.491481338843133355E-15, 1.224646799147353207E-16, -1.000000000000000000 ) ) ;
#146 = ADVANCED_FACE ( 'NONE', ( #87 ), #110, .T. ) ;
#147 = LOCAL_TIME ( 14, 57, 25.00000000000000000, #224 ) ;
#148 = EDGE_LOOP ( 'NONE', ( #237 ) ) ;
#149 = AXIS2_PLACEMENT_3D ( 'NONE', #1, #175, #140 ) ;
#150 = APPROVAL_ROLE ( '' ) ;
#151 = CIRCLE ( 'NONE', #90, 0.4250000000000009881 ) ;
#152 = ORIENTED_EDGE ( 'NONE', *, *, #126, .T. ) ;
#153 = PERSON_AND_ORGANIZATION ( #168, #9 ) ;
#154 = AXIS2_PLACEMENT_3D ( 'NONE', #206, #81, #130 ) ;
#155 = DIRECTION ( 'NONE',  ( 3.491481338843133355E-15, -4.327174794786742882E-16, 1.000000000000000000 ) ) ;
#156 = APPROVAL_ROLE ( '' ) ;
#157 = CARTESIAN_POINT ( 'NONE',  ( 2.324914243470870770E-14, -2.881387393501356115E-15, 6.658819045102521983 ) ) ;
#158 = CARTESIAN_POINT ( 'NONE',  ( 1.920314736363723345E-14, -0.4250000000000033751, 5.500000000000000000 ) ) ;
#159 = FACE_BOUND ( 'NONE', #118, .T. ) ;
#160 = DIRECTION ( 'NONE',  ( 3.491481338843133355E-15, -1.224646799147353207E-16, 1.000000000000000000 ) ) ;
#161 = ADVANCED_FACE ( 'NONE', ( #128 ), #260, .F. ) ;
#162 = DIRECTION ( 'NONE',  ( -3.491481338843133355E-15, 4.327174794786742882E-16, -1.000000000000000000 ) ) ;
#163 = FACE_BOUND ( 'NONE', #216, .T. ) ;
#164 = CARTESIAN_POINT ( 'NONE',  ( 2.234548056859605347E-14, -2.769391868663515681E-15, 6.400000000000000355 ) ) ;
#165 = VERTEX_POINT ( 'NONE', #229 ) ;
#166 = FACE_OUTER_BOUND ( 'NONE', #79, .T. ) ;
#167 = PERSON_AND_ORGANIZATION ( #168, #9 ) ;
#168 = PERSON ( 'UNSPECIFIED', 'UNSPECIFIED', 'UNSPECIFIED', ('UNSPECIFIED'), ('UNSPECIFIED'), ('UNSPECIFIED') ) ;
#169 = AXIS2_PLACEMENT_3D ( 'NONE', #57, #228, #44 ) ;
#170 = PERSON_AND_ORGANIZATION_ROLE ( 'creator' ) ;
#171 = AXIS2_PLACEMENT_3D ( 'NONE', #20, #160, #125 ) ;
#172 = PERSON_AND_ORGANIZATION_ROLE ( 'creator' ) ;
#173 = ORIENTED_EDGE ( 'NONE', *, *, #5, .T. ) ;
#174 = EDGE_CURVE ( 'NONE', #58, #58, #117, .T. ) ;
#175 = DIRECTION ( 'NONE',  ( 3.491481338843133355E-15, -1.224646799147353207E-16, 1.000000000000000000 ) ) ;
#176 = DIRECTION ( 'NONE',  ( 0.0000000000000000000, -1.000000000000000000, 0.0000000000000000000 ) ) ;
#177 = APPLICATION_CONTEXT ( 'configuration controlled 3d designs of mechanical parts and assemblies' ) ;
#178 = DATE_TIME_ROLE ( 'classification_date' ) ;
#179 = CYLINDRICAL_SURFACE ( 'NONE', #211, 1.499999999999994005 ) ;
#180 = FACE_OUTER_BOUND ( 'NONE', #36, .T. ) ;
#181 =( GEOMETRIC_REPRESENTATION_CONTEXT ( 3 ) GLOBAL_UNCERTAINTY_ASSIGNED_CONTEXT ( ( #198 ) ) GLOBAL_UNIT_ASSIGNED_CONTEXT ( ( #203, #142, #97 ) ) REPRESENTATION_CONTEXT ( 'NONE', 'WORKASPACE' ) );
#182 = DIRECTION ( 'NONE',  ( 0.0000000000000000000, -1.000000000000000000, 0.0000000000000000000 ) ) ;
#183 = DIRECTION ( 'NONE',  ( 0.0000000000000000000, 1.000000000000000000, 0.0000000000000000000 ) ) ;
#184 = CC_DESIGN_PERSON_AND_ORGANIZATION_ASSIGNMENT ( #167, #172, ( #67 ) ) ;
#185 = ADVANCED_BREP_SHAPE_REPRESENTATION ( '960475', ( #186, #107, #234 ), #181 ) ;
#186 = MANIFOLD_SOLID_BREP ( 'Corps-Déplacer/Copier1[1]', #49 ) ;
#187 = TOROIDAL_SURFACE ( 'NONE', #169, 1.425000000000002043, 1.000000000000000000 ) ;
#188 = PRODUCT ( '960475', '960475', '', ( #236 ) ) ;
#189 = DATE_AND_TIME ( #250, #230 ) ;
#190 = EDGE_LOOP ( 'NONE', ( #19 ) ) ;
#191 = AXIS2_PLACEMENT_3D ( 'NONE', #86, #98, #120 ) ;
#192 = PERSON_AND_ORGANIZATION ( #168, #9 ) ;
#193 = ORIENTED_EDGE ( 'NONE', *, *, #174, .F. ) ;
#194 = ADVANCED_FACE ( 'NONE', ( #163, #247 ), #88, .T. ) ;
#195 = EDGE_LOOP ( 'NONE', ( #10 ) ) ;
#196 = ORIENTED_EDGE ( 'NONE', *, *, #5, .F. ) ;
#197 = CARTESIAN_POINT ( 'NONE',  ( 1.501336975702547217E-13, 1.099999999999995426, 43.00000000000000000 ) ) ;
#198 = UNCERTAINTY_MEASURE_WITH_UNIT (LENGTH_MEASURE( 1.000000000000000082E-05 ), #203, 'distance_accuracy_value', 'NONE');
#199 = CONICAL_SURFACE ( 'NONE', #191, 1.100000000000000755, 0.7853981633974512766 ) ;
#200 = CLOSED_SHELL ( 'NONE', ( #146, #248, #73 ) ) ;
#201 = CARTESIAN_POINT ( 'NONE',  ( 1.920314736363723345E-14, -2.379946137132708585E-15, 5.500000000000000000 ) ) ;
#202 = AXIS2_PLACEMENT_3D ( 'NONE', #76, #240, #222 ) ;
#203 =( LENGTH_UNIT ( ) NAMED_UNIT ( * ) SI_UNIT ( .MILLI., .METRE. ) );
#204 = COORDINATED_UNIVERSAL_TIME_OFFSET ( 1, 0, .AHEAD. ) ;
#205 = FACE_OUTER_BOUND ( 'NONE', #42, .T. ) ;
#206 = CARTESIAN_POINT ( 'NONE',  ( 1.920314736363723345E-14, 1.124819836996382806E-32, 5.500000000000000000 ) ) ;
#207 = FACE_OUTER_BOUND ( 'NONE', #195, .T. ) ;
#208 = FACE_OUTER_BOUND ( 'NONE', #12, .T. ) ;
#209 = DIRECTION ( 'NONE',  ( -3.491481338843133355E-15, 4.327174794786742882E-16, -1.000000000000000000 ) ) ;
#210 = DIRECTION ( 'NONE',  ( -3.491481338843133355E-15, 1.224646799147353207E-16, -1.000000000000000000 ) ) ;
#211 = AXIS2_PLACEMENT_3D ( 'NONE', #263, #39, #122 ) ;
#212 = APPROVAL ( #93, 'UNSPECIFIED' ) ;
#213 = AXIS2_PLACEMENT_3D ( 'NONE', #63, #210, #183 ) ;
#214 = ORIENTED_EDGE ( 'NONE', *, *, #133, .T. ) ;
#215 = AXIS2_PLACEMENT_3D ( 'NONE', #157, #162, #129 ) ;
#216 = EDGE_LOOP ( 'NONE', ( #116 ) ) ;
#217 = APPLICATION_PROTOCOL_DEFINITION ( 'international standard', 'config_control_design', 1994, #177 ) ;
#218 = DATE_TIME_ROLE ( 'creation_date' ) ;
#219 = LOCAL_TIME ( 14, 57, 25.00000000000000000, #132 ) ;
#220 = DATE_AND_TIME ( #17, #99 ) ;
#221 = CARTESIAN_POINT ( 'NONE',  ( 1.920314736363723345E-14, -0.4250000000000033751, 5.500000000000000000 ) ) ;
#222 = DIRECTION ( 'NONE',  ( -4.531599869146426895E-31, -1.000000000000000000, -1.275531967630002287E-16 ) ) ;
#223 = CARTESIAN_POINT ( 'NONE',  ( 4.332800036376423315E-14, -5.369864905098235229E-15, 12.40963251950832991 ) ) ;
#224 = COORDINATED_UNIVERSAL_TIME_OFFSET ( 1, 0, .AHEAD. ) ;
#225 = SECURITY_CLASSIFICATION ( '', '', #89 ) ;
#226 = DIRECTION ( 'NONE',  ( -3.491481338843133355E-15, 4.327174794786742882E-16, -1.000000000000000000 ) ) ;
#227 = CARTESIAN_POINT ( 'NONE',  ( 1.501336975702547217E-13, 8.248678804640145683E-33, 43.00000000000000000 ) ) ;
#228 = DIRECTION ( 'NONE',  ( -3.491481338843133355E-15, 4.327174794786742882E-16, -1.000000000000000000 ) ) ;
#229 = CARTESIAN_POINT ( 'NONE',  ( 5.400879943548018399E-16, -0.4250000000000009881, 0.1546873495631382878 ) ) ;
#230 = LOCAL_TIME ( 14, 57, 25.00000000000000000, #134 ) ;
#231 = EDGE_LOOP ( 'NONE', ( #34 ) ) ;
#232 = AXIS2_PLACEMENT_3D ( 'NONE', #102, #145, #182 ) ;
#233 = AXIS2_PLACEMENT_3D ( 'NONE', #227, #43, #121 ) ;
#234 = AXIS2_PLACEMENT_3D ( 'NONE', #50, #28, #51 ) ;
#235 = ADVANCED_FACE ( 'NONE', ( #144 ), #24, .F. ) ;
#236 = MECHANICAL_CONTEXT ( 'NONE', #177, 'mechanical' ) ;
#237 = ORIENTED_EDGE ( 'NONE', *, *, #137, .F. ) ;
#238 = AXIS2_PLACEMENT_3D ( 'NONE', #223, #155, #77 ) ;
#239 = VERTEX_POINT ( 'NONE', #242 ) ;
#240 = DIRECTION ( 'NONE',  ( -3.491481338843133355E-15, 1.224646799147353207E-16, -1.000000000000000000 ) ) ;
#241 = APPROVAL ( #78, 'UNSPECIFIED' ) ;
#242 = CARTESIAN_POINT ( 'NONE',  ( 1.487371050347174683E-13, 1.499999999999995559, 42.60000000000000142 ) ) ;
#243 = FACE_OUTER_BOUND ( 'NONE', #190, .T. ) ;
#244 = VERTEX_POINT ( 'NONE', #84 ) ;
#245 = AXIS2_PLACEMENT_3D ( 'NONE', #164, #209, #256 ) ;
#246 = ORIENTED_EDGE ( 'NONE', *, *, #52, .T. ) ;
#247 = FACE_OUTER_BOUND ( 'NONE', #136, .T. ) ;
#248 = ADVANCED_FACE ( 'NONE', ( #208, #40 ), #257, .T. ) ;
#249 = EDGE_LOOP ( 'NONE', ( #193 ) ) ;
#250 = CALENDAR_DATE ( 2021, 13, 10 ) ;
#251 = PERSON_AND_ORGANIZATION_ROLE ( 'design_owner' ) ;
#252 = ORIENTED_EDGE ( 'NONE', *, *, #52, .F. ) ;
#253 = PERSON_AND_ORGANIZATION_ROLE ( 'design_supplier' ) ;
#254 = CC_DESIGN_DATE_AND_TIME_ASSIGNMENT ( #92, #218, ( #67 ) ) ;
#255 = AXIS2_PLACEMENT_3D ( 'NONE', #22, #65, #108 ) ;
#256 = DIRECTION ( 'NONE',  ( 0.0000000000000000000, 1.000000000000000000, 0.0000000000000000000 ) ) ;
#257 = CYLINDRICAL_SURFACE ( 'NONE', #255, 0.4250000000000009881 ) ;
#258 = CARTESIAN_POINT ( 'NONE',  ( 1.487371050347174683E-13, -5.216995364367725042E-15, 42.60000000000000142 ) ) ;
#259 = CYLINDRICAL_SURFACE ( 'NONE', #25, 0.4250000000000009881 ) ;
#260 = PLANE ( 'NONE',  #154 ) ;
#261 = CIRCLE ( 'NONE', #3, 1.499999999999994005 ) ;
#262 = APPROVAL_PERSON_ORGANIZATION ( #70, #212, #150 ) ;
#263 = CARTESIAN_POINT ( 'NONE',  ( 0.0000000000000000000, 0.0000000000000000000, 0.0000000000000000000 ) ) ;
ENDSEC;
END-ISO-10303-21;
