ISO-10303-21;
HEADER;
FILE_DESCRIPTION (( 'STEP AP203' ),
    '1' );
FILE_NAME ('960474.step',
    '2021-10-13T12:57:24',
    ( '' ),
    ( '' ),
    'SwSTEP 2.0',
    'SolidWorks 2019',
    '' );
FILE_SCHEMA (( 'CONFIG_CONTROL_DESIGN' ));
ENDSEC;

DATA;
#1 = EDGE_LOOP ( 'NONE', ( #111 ) ) ;
#2 = SECURITY_CLASSIFICATION_LEVEL ( 'unclassified' ) ;
#3 = ADVANCED_BREP_SHAPE_REPRESENTATION ( '960474', ( #214, #220, #40 ), #5 ) ;
#4 = CARTESIAN_POINT ( 'NONE',  ( 1.815570296198429345E-14, -2.250130893289106220E-15, 5.200000000000000178 ) ) ;
#5 =( GEOMETRIC_REPRESENTATION_CONTEXT ( 3 ) GLOBAL_UNCERTAINTY_ASSIGNED_CONTEXT ( ( #38 ) ) GLOBAL_UNIT_ASSIGNED_CONTEXT ( ( #94, #176, #70 ) ) REPRESENTATION_CONTEXT ( 'NONE', 'WORKASPACE' ) );
#6 = CC_DESIGN_PERSON_AND_ORGANIZATION_ASSIGNMENT ( #51, #194, ( #210 ) ) ;
#7 = PLANE ( 'NONE',  #144 ) ;
#8 = AXIS2_PLACEMENT_3D ( 'NONE', #60, #100, #101 ) ;
#9 = CARTESIAN_POINT ( 'NONE',  ( 1.501336975702547217E-13, 1.099999999999995426, 43.00000000000000000 ) ) ;
#10 = DIRECTION ( 'NONE',  ( 0.0000000000000000000, -1.000000000000000000, 0.0000000000000000000 ) ) ;
#11 = ORIENTED_EDGE ( 'NONE', *, *, #167, .T. ) ;
#12 = CARTESIAN_POINT ( 'NONE',  ( 3.574197459686242765E-14, -1.499999999999998224, 10.23690838591311447 ) ) ;
#13 = CIRCLE ( 'NONE', #201, 0.4000000000000009659 ) ;
#14 = FACE_OUTER_BOUND ( 'NONE', #74, .T. ) ;
#15 = ADVANCED_FACE ( 'NONE', ( #121, #17 ), #120, .T. ) ;
#16 = TOROIDAL_SURFACE ( 'NONE', #52, 1.400000000000001910, 1.000000000000000000 ) ;
#17 = FACE_OUTER_BOUND ( 'NONE', #132, .T. ) ;
#18 = CARTESIAN_POINT ( 'NONE',  ( 1.815570296198429345E-14, 1.124819836996382806E-32, 5.200000000000000178 ) ) ;
#19 = EDGE_CURVE ( 'NONE', #256, #256, #180, .T. ) ;
#20 = FACE_OUTER_BOUND ( 'NONE', #96, .T. ) ;
#21 = AXIS2_PLACEMENT_3D ( 'NONE', #143, #232, #47 ) ;
#22 = APPROVAL_DATE_TIME ( #112, #174 ) ;
#23 = DIRECTION ( 'NONE',  ( 0.0000000000000000000, -1.000000000000000000, 0.0000000000000000000 ) ) ;
#24 = ADVANCED_FACE ( 'NONE', ( #205 ), #116, .T. ) ;
#25 = ADVANCED_FACE ( 'NONE', ( #39 ), #168, .T. ) ;
#26 = FACE_OUTER_BOUND ( 'NONE', #219, .T. ) ;
#27 = VERTEX_POINT ( 'NONE', #95 ) ;
#28 = APPROVAL_PERSON_ORGANIZATION ( #226, #190, #186 ) ;
#29 = DIRECTION ( 'NONE',  ( -3.491481338843133355E-15, 4.327174794786742882E-16, -1.000000000000000000 ) ) ;
#30 = CC_DESIGN_PERSON_AND_ORGANIZATION_ASSIGNMENT ( #117, #80, ( #208 ) ) ;
#31 = VERTEX_POINT ( 'NONE', #152 ) ;
#32 = CC_DESIGN_APPROVAL ( #174, ( #141 ) ) ;
#33 = DIRECTION ( 'NONE',  ( 1.510825004591027679E-30, 1.000000000000000000, 4.327174794786742882E-16 ) ) ;
#34 = ORIENTED_EDGE ( 'NONE', *, *, #233, .T. ) ;
#35 = APPROVAL ( #55, 'UNSPECIFIED' ) ;
#36 = DATE_TIME_ROLE ( 'creation_date' ) ;
#37 = ORIENTED_EDGE ( 'NONE', *, *, #146, .F. ) ;
#38 = UNCERTAINTY_MEASURE_WITH_UNIT (LENGTH_MEASURE( 1.000000000000000082E-05 ), #94, 'distance_accuracy_value', 'NONE');
#39 = FACE_OUTER_BOUND ( 'NONE', #133, .T. ) ;
#40 = AXIS2_PLACEMENT_3D ( 'NONE', #125, #72, #129 ) ;
#41 = DATE_AND_TIME ( #136, #75 ) ;
#42 = ORIENTED_EDGE ( 'NONE', *, *, #146, .T. ) ;
#43 = CARTESIAN_POINT ( 'NONE',  ( 2.094888803305879698E-14, -2.602085213965210642E-15, 5.999999999999999112 ) ) ;
#44 = PERSON_AND_ORGANIZATION ( #231, #109 ) ;
#45 = LOCAL_TIME ( 14, 57, 24.00000000000000000, #254 ) ;
#46 = CARTESIAN_POINT ( 'NONE',  ( 1.906192921252219839E-15, -6.686024735685277809E-17, 0.5459553513993053997 ) ) ;
#47 = DIRECTION ( 'NONE',  ( 1.510825004591027679E-30, 1.000000000000000000, 4.327174794786742882E-16 ) ) ;
#48 = AXIS2_PLACEMENT_3D ( 'NONE', #4, #160, #166 ) ;
#49 = DIRECTION ( 'NONE',  ( 4.275831445896958607E-31, 1.000000000000000000, 1.224646799147353207E-16 ) ) ;
#50 = CIRCLE ( 'NONE', #8, 0.4000000000000019096 ) ;
#51 = PERSON_AND_ORGANIZATION ( #231, #109 ) ;
#52 = AXIS2_PLACEMENT_3D ( 'NONE', #43, #115, #139 ) ;
#53 = CARTESIAN_POINT ( 'NONE',  ( 2.185254989917145120E-14, 0.4340741737109310439, 6.258819045102521628 ) ) ;
#54 = EDGE_LOOP ( 'NONE', ( #90 ) ) ;
#55 = APPROVAL_STATUS ( 'not_yet_approved' ) ;
#56 = ORIENTED_EDGE ( 'NONE', *, *, #243, .T. ) ;
#57 = AXIS2_PLACEMENT_3D ( 'NONE', #238, #29, #33 ) ;
#58 = APPROVAL_DATE_TIME ( #97, #190 ) ;
#59 = DIRECTION ( 'NONE',  ( 3.491481338843133355E-15, -1.224646799147353207E-16, 1.000000000000000000 ) ) ;
#60 = CARTESIAN_POINT ( 'NONE',  ( 2.094888803305880013E-14, -2.596304876872045729E-15, 6.000000000000000000 ) ) ;
#61 = FACE_OUTER_BOUND ( 'NONE', #241, .T. ) ;
#62 = AXIS2_PLACEMENT_3D ( 'NONE', #123, #86, #211 ) ;
#63 = DIRECTION ( 'NONE',  ( 0.0000000000000000000, 1.000000000000000000, 0.0000000000000000000 ) ) ;
#64 = AXIS2_PLACEMENT_3D ( 'NONE', #161, #59, #135 ) ;
#65 = FACE_OUTER_BOUND ( 'NONE', #221, .T. ) ;
#66 = APPLICATION_CONTEXT ( 'configuration controlled 3d designs of mechanical parts and assemblies' ) ;
#67 = FACE_OUTER_BOUND ( 'NONE', #150, .T. ) ;
#68 = CALENDAR_DATE ( 2021, 13, 10 ) ;
#69 = LOCAL_TIME ( 14, 57, 24.00000000000000000, #84 ) ;
#70 =( NAMED_UNIT ( * ) SI_UNIT ( $, .STERADIAN. ) SOLID_ANGLE_UNIT ( ) );
#71 = ADVANCED_FACE ( 'NONE', ( #140, #61 ), #16, .F. ) ;
#72 = DIRECTION ( 'NONE',  ( 0.0000000000000000000, 0.0000000000000000000, 1.000000000000000000 ) ) ;
#73 = VERTEX_POINT ( 'NONE', #173 ) ;
#74 = EDGE_LOOP ( 'NONE', ( #248 ) ) ;
#75 = LOCAL_TIME ( 14, 57, 24.00000000000000000, #225 ) ;
#76 = APPROVAL_STATUS ( 'not_yet_approved' ) ;
#77 = DIRECTION ( 'NONE',  ( -4.275831445896958607E-31, -1.000000000000000000, -1.224646799147353207E-16 ) ) ;
#78 = CC_DESIGN_PERSON_AND_ORGANIZATION_ASSIGNMENT ( #183, #206, ( #141 ) ) ;
#79 = APPLICATION_CONTEXT ( 'configuration controlled 3d designs of mechanical parts and assemblies' ) ;
#80 = PERSON_AND_ORGANIZATION_ROLE ( 'classification_officer' ) ;
#81 = CARTESIAN_POINT ( 'NONE',  ( 4.225716747198300853E-14, -5.237151003775204430E-15, 12.10293378969755196 ) ) ;
#82 = CIRCLE ( 'NONE', #105, 1.499999999999994005 ) ;
#83 = DIRECTION ( 'NONE',  ( 3.491481338843133355E-15, -1.224646799147353207E-16, 1.000000000000000000 ) ) ;
#84 = COORDINATED_UNIVERSAL_TIME_OFFSET ( 1, 0, .AHEAD. ) ;
#85 = CARTESIAN_POINT ( 'NONE',  ( 2.185254989917145120E-14, -2.708300401709885768E-15, 6.258819045102521628 ) ) ;
#86 = DIRECTION ( 'NONE',  ( -3.491481338843133355E-15, 1.224646799147353207E-16, -1.000000000000000000 ) ) ;
#87 = ADVANCED_FACE ( 'NONE', ( #222, #203 ), #181, .T. ) ;
#88 = DIRECTION ( 'NONE',  ( -3.491481338843133355E-15, 1.224646799147353207E-16, -1.000000000000000000 ) ) ;
#89 = ADVANCED_FACE ( 'NONE', ( #20 ), #182, .F. ) ;
#90 = ORIENTED_EDGE ( 'NONE', *, *, #151, .F. ) ;
#91 = DIRECTION ( 'NONE',  ( -4.814824860968078247E-31, -1.000000000000000000, -1.355252715606877338E-16 ) ) ;
#92 = EDGE_LOOP ( 'NONE', ( #230 ) ) ;
#93 = APPROVAL_PERSON_ORGANIZATION ( #44, #174, #113 ) ;
#94 =( LENGTH_UNIT ( ) NAMED_UNIT ( * ) SI_UNIT ( .MILLI., .METRE. ) );
#95 = CARTESIAN_POINT ( 'NONE',  ( 1.815570296198429345E-14, -0.4000000000000032419, 5.200000000000000178 ) ) ;
#96 = EDGE_LOOP ( 'NONE', ( #137 ) ) ;
#97 = DATE_AND_TIME ( #165, #69 ) ;
#98 = DIRECTION ( 'NONE',  ( 4.275831445896958607E-31, 1.000000000000000000, 1.224646799147353207E-16 ) ) ;
#99 = DATE_AND_TIME ( #102, #242 ) ;
#100 = DIRECTION ( 'NONE',  ( -3.491481338843133355E-15, 4.327174794786742882E-16, -1.000000000000000000 ) ) ;
#101 = DIRECTION ( 'NONE',  ( 0.0000000000000000000, 1.000000000000000000, 0.0000000000000000000 ) ) ;
#102 = CALENDAR_DATE ( 2021, 13, 10 ) ;
#103 = CARTESIAN_POINT ( 'NONE',  ( 1.487371050347174683E-13, -5.216995364367725042E-15, 42.60000000000000142 ) ) ;
#104 = DIRECTION ( 'NONE',  ( 0.0000000000000000000, 1.000000000000000000, 0.0000000000000000000 ) ) ;
#105 = AXIS2_PLACEMENT_3D ( 'NONE', #110, #149, #10 ) ;
#106 = CARTESIAN_POINT ( 'NONE',  ( 5.083181123339315553E-16, -0.4000000000000009659, 0.1455880937064832070 ) ) ;
#107 = EDGE_LOOP ( 'NONE', ( #42 ) ) ;
#108 = CLOSED_SHELL ( 'NONE', ( #25, #235, #24 ) ) ;
#109 = ORGANIZATION ( 'UNSPECIFIED', 'UNSPECIFIED', '' ) ;
#110 = CARTESIAN_POINT ( 'NONE',  ( 3.574197459686242765E-14, -4.429689194406427675E-15, 10.23690838591311447 ) ) ;
#111 = ORIENTED_EDGE ( 'NONE', *, *, #138, .F. ) ;
#112 = DATE_AND_TIME ( #263, #175 ) ;
#113 = APPROVAL_ROLE ( '' ) ;
#114 = AXIS2_PLACEMENT_3D ( 'NONE', #18, #260, #77 ) ;
#115 = DIRECTION ( 'NONE',  ( -3.491481338843133355E-15, 4.327174794786742882E-16, -1.000000000000000000 ) ) ;
#116 = PLANE ( 'NONE',  #64 ) ;
#117 = PERSON_AND_ORGANIZATION ( #231, #109 ) ;
#118 = COORDINATED_UNIVERSAL_TIME_OFFSET ( 1, 0, .AHEAD. ) ;
#119 = DIRECTION ( 'NONE',  ( -3.491481338843133355E-15, 1.224646799147353207E-16, -1.000000000000000000 ) ) ;
#120 = CONICAL_SURFACE ( 'NONE', #258, 1.999999999999995337, 0.2617993877991502960 ) ;
#121 = FACE_BOUND ( 'NONE', #54, .T. ) ;
#122 = CC_DESIGN_PERSON_AND_ORGANIZATION_ASSIGNMENT ( #261, #164, ( #141 ) ) ;
#123 = CARTESIAN_POINT ( 'NONE',  ( 1.501336975702547217E-13, -5.265981236333618470E-15, 43.00000000000000000 ) ) ;
#124 = CARTESIAN_POINT ( 'NONE',  ( 5.083181123339317525E-16, -1.782939929516096413E-17, 0.1455880937064832625 ) ) ;
#125 = CARTESIAN_POINT ( 'NONE',  ( 0.0000000000000000000, 0.0000000000000000000, 0.0000000000000000000 ) ) ;
#126 = VERTEX_POINT ( 'NONE', #53 ) ;
#127 = CYLINDRICAL_SURFACE ( 'NONE', #57, 0.4000000000000009659 ) ;
#128 = EDGE_LOOP ( 'NONE', ( #155 ) ) ;
#129 = DIRECTION ( 'NONE',  ( 1.000000000000000000, 0.0000000000000000000, 0.0000000000000000000 ) ) ;
#130 = AXIS2_PLACEMENT_3D ( 'NONE', #85, #252, #104 ) ;
#131 = APPROVAL_ROLE ( '' ) ;
#132 = EDGE_LOOP ( 'NONE', ( #240 ) ) ;
#133 = EDGE_LOOP ( 'NONE', ( #34 ) ) ;
#134 = EDGE_CURVE ( 'NONE', #31, #31, #50, .T. ) ;
#135 = DIRECTION ( 'NONE',  ( -4.275831445896958607E-31, -1.000000000000000000, -1.224646799147353207E-16 ) ) ;
#136 = CALENDAR_DATE ( 2021, 13, 10 ) ;
#137 = ORIENTED_EDGE ( 'NONE', *, *, #19, .T. ) ;
#138 = EDGE_CURVE ( 'NONE', #27, #27, #13, .T. ) ;
#139 = DIRECTION ( 'NONE',  ( 1.532954416593744040E-30, 1.000000000000000000, 4.327174794786743375E-16 ) ) ;
#140 = FACE_OUTER_BOUND ( 'NONE', #128, .T. ) ;
#141 = PRODUCT_DEFINITION_FORMATION_WITH_SPECIFIED_SOURCE ( 'ANY', '', #177, .NOT_KNOWN. ) ;
#142 = ADVANCED_FACE ( 'NONE', ( #67, #189 ), #162, .T. ) ;
#143 = CARTESIAN_POINT ( 'NONE',  ( 0.0000000000000000000, 0.0000000000000000000, 0.0000000000000000000 ) ) ;
#144 = AXIS2_PLACEMENT_3D ( 'NONE', #249, #88, #49 ) ;
#145 = DIRECTION ( 'NONE',  ( -3.491481338843133355E-15, 1.224646799147353207E-16, -1.000000000000000000 ) ) ;
#146 = EDGE_CURVE ( 'NONE', #73, #73, #237, .T. ) ;
#147 = DATE_AND_TIME ( #68, #45 ) ;
#148 = CC_DESIGN_APPROVAL ( #35, ( #210 ) ) ;
#149 = DIRECTION ( 'NONE',  ( 3.491481338843133355E-15, -4.327174794786742882E-16, 1.000000000000000000 ) ) ;
#150 = EDGE_LOOP ( 'NONE', ( #37 ) ) ;
#151 = EDGE_CURVE ( 'NONE', #126, #126, #229, .T. ) ;
#152 = CARTESIAN_POINT ( 'NONE',  ( 2.094888803305880013E-14, 0.3999999999999993006, 6.000000000000000000 ) ) ;
#153 = ORIENTED_EDGE ( 'NONE', *, *, #19, .F. ) ;
#154 = PERSON_AND_ORGANIZATION ( #231, #109 ) ;
#155 = ORIENTED_EDGE ( 'NONE', *, *, #134, .F. ) ;
#156 = APPROVAL_PERSON_ORGANIZATION ( #154, #35, #131 ) ;
#157 = MECHANICAL_CONTEXT ( 'NONE', #66, 'mechanical' ) ;
#158 = ADVANCED_FACE ( 'NONE', ( #251 ), #7, .F. ) ;
#159 = APPROVAL_STATUS ( 'not_yet_approved' ) ;
#160 = DIRECTION ( 'NONE',  ( -3.491481338843133355E-15, 1.224646799147353207E-16, -1.000000000000000000 ) ) ;
#161 = CARTESIAN_POINT ( 'NONE',  ( 1.815570296198429345E-14, 1.124819836996382806E-32, 5.200000000000000178 ) ) ;
#162 = CONICAL_SURFACE ( 'NONE', #62, 1.100000000000000755, 0.7853981633974512766 ) ;
#163 = DIRECTION ( 'NONE',  ( 3.491481338843133355E-15, -4.327174794786742882E-16, 1.000000000000000000 ) ) ;
#164 = PERSON_AND_ORGANIZATION_ROLE ( 'creator' ) ;
#165 = CALENDAR_DATE ( 2021, 13, 10 ) ;
#166 = DIRECTION ( 'NONE',  ( 0.0000000000000000000, -1.000000000000000000, 0.0000000000000000000 ) ) ;
#167 = EDGE_CURVE ( 'NONE', #213, #213, #262, .T. ) ;
#168 = CONICAL_SURFACE ( 'NONE', #253, 1.499999999999985789, 1.221730476396026610 ) ;
#169 = DIRECTION ( 'NONE',  ( 0.0000000000000000000, 1.000000000000000000, 0.0000000000000000000 ) ) ;
#170 = CARTESIAN_POINT ( 'NONE',  ( 1.501336975702547217E-13, -5.265981236333618470E-15, 43.00000000000000000 ) ) ;
#171 = AXIS2_PLACEMENT_3D ( 'NONE', #103, #187, #169 ) ;
#172 = APPLICATION_PROTOCOL_DEFINITION ( 'international standard', 'config_control_design', 1994, #66 ) ;
#173 = CARTESIAN_POINT ( 'NONE',  ( 1.487371050347174683E-13, 1.499999999999995559, 42.60000000000000142 ) ) ;
#174 = APPROVAL ( #159, 'UNSPECIFIED' ) ;
#175 = LOCAL_TIME ( 14, 57, 24.00000000000000000, #118 ) ;
#176 =( NAMED_UNIT ( * ) PLANE_ANGLE_UNIT ( ) SI_UNIT ( $, .RADIAN. ) );
#177 = PRODUCT ( '960474', '960474', '', ( #157 ) ) ;
#178 = PERSON_AND_ORGANIZATION_ROLE ( 'design_owner' ) ;
#179 = ORIENTED_EDGE ( 'NONE', *, *, #167, .F. ) ;
#180 = CIRCLE ( 'NONE', #48, 0.4000000000000009659 ) ;
#181 = CYLINDRICAL_SURFACE ( 'NONE', #197, 1.499999999999994005 ) ;
#182 = PLANE ( 'NONE',  #114 ) ;
#183 = PERSON_AND_ORGANIZATION ( #231, #109 ) ;
#184 = AXIS2_PLACEMENT_3D ( 'NONE', #170, #145, #63 ) ;
#185 = DIRECTION ( 'NONE',  ( -5.135813185032677695E-31, -1.000000000000000000, -1.445602896647352968E-16 ) ) ;
#186 = APPROVAL_ROLE ( '' ) ;
#187 = DIRECTION ( 'NONE',  ( -3.491481338843133355E-15, 1.224646799147353207E-16, -1.000000000000000000 ) ) ;
#188 = CC_DESIGN_APPROVAL ( #190, ( #208 ) ) ;
#189 = FACE_BOUND ( 'NONE', #247, .T. ) ;
#190 = APPROVAL ( #76, 'UNSPECIFIED' ) ;
#191 = DIRECTION ( 'NONE',  ( -3.491481338843133355E-15, 1.224646799147353207E-16, -1.000000000000000000 ) ) ;
#192 = CIRCLE ( 'NONE', #217, 0.4000000000000009659 ) ;
#193 = PRODUCT_DEFINITION_SHAPE ( 'NONE', 'NONE',  #210 ) ;
#194 = PERSON_AND_ORGANIZATION_ROLE ( 'creator' ) ;
#195 = EDGE_LOOP ( 'NONE', ( #179 ) ) ;
#196 = VERTEX_POINT ( 'NONE', #12 ) ;
#197 = AXIS2_PLACEMENT_3D ( 'NONE', #259, #202, #98 ) ;
#198 = CARTESIAN_POINT ( 'NONE',  ( 1.815570296198429345E-14, -0.4000000000000032419, 5.200000000000000178 ) ) ;
#199 = SHAPE_DEFINITION_REPRESENTATION ( #193, #3 ) ;
#200 = DESIGN_CONTEXT ( 'detailed design', #79, 'design' ) ;
#201 = AXIS2_PLACEMENT_3D ( 'NONE', #227, #119, #23 ) ;
#202 = DIRECTION ( 'NONE',  ( -3.491481338843133355E-15, 1.224646799147353207E-16, -1.000000000000000000 ) ) ;
#203 = FACE_OUTER_BOUND ( 'NONE', #107, .T. ) ;
#204 = DATE_TIME_ROLE ( 'classification_date' ) ;
#205 = FACE_OUTER_BOUND ( 'NONE', #1, .T. ) ;
#206 = PERSON_AND_ORGANIZATION_ROLE ( 'design_supplier' ) ;
#207 = CLOSED_SHELL ( 'NONE', ( #87, #142, #158, #228, #15, #71, #89 ) ) ;
#208 = SECURITY_CLASSIFICATION ( '', '', #2 ) ;
#209 = ORIENTED_EDGE ( 'NONE', *, *, #151, .T. ) ;
#210 = PRODUCT_DEFINITION ( 'UNKNOWN', '', #141, #200 ) ;
#211 = DIRECTION ( 'NONE',  ( 0.0000000000000000000, 1.000000000000000000, 0.0000000000000000000 ) ) ;
#212 = PERSON_AND_ORGANIZATION ( #231, #109 ) ;
#213 = VERTEX_POINT ( 'NONE', #9 ) ;
#214 = MANIFOLD_SOLID_BREP ( 'Corps-Déplacer/Copier1[1]', #207 ) ;
#215 = VERTEX_POINT ( 'NONE', #106 ) ;
#216 = ORIENTED_EDGE ( 'NONE', *, *, #134, .T. ) ;
#217 = AXIS2_PLACEMENT_3D ( 'NONE', #124, #191, #91 ) ;
#218 = FACE_OUTER_BOUND ( 'NONE', #92, .T. ) ;
#219 = EDGE_LOOP ( 'NONE', ( #153 ) ) ;
#220 = MANIFOLD_SOLID_BREP ( 'Corps-Déplacer/Copier1[2]', #108 ) ;
#221 = EDGE_LOOP ( 'NONE', ( #216 ) ) ;
#222 = FACE_OUTER_BOUND ( 'NONE', #255, .T. ) ;
#223 = CC_DESIGN_SECURITY_CLASSIFICATION ( #208, ( #141 ) ) ;
#224 = CC_DESIGN_DATE_AND_TIME_ASSIGNMENT ( #41, #36, ( #210 ) ) ;
#225 = COORDINATED_UNIVERSAL_TIME_OFFSET ( 1, 0, .AHEAD. ) ;
#226 = PERSON_AND_ORGANIZATION ( #231, #109 ) ;
#227 = CARTESIAN_POINT ( 'NONE',  ( 1.815570296198429345E-14, -2.250130893289106220E-15, 5.200000000000000178 ) ) ;
#228 = ADVANCED_FACE ( 'NONE', ( #65, #26 ), #234, .T. ) ;
#229 = CIRCLE ( 'NONE', #130, 0.4340741737109337639 ) ;
#230 = ORIENTED_EDGE ( 'NONE', *, *, #138, .T. ) ;
#231 = PERSON ( 'UNSPECIFIED', 'UNSPECIFIED', 'UNSPECIFIED', ('UNSPECIFIED'), ('UNSPECIFIED'), ('UNSPECIFIED') ) ;
#232 = DIRECTION ( 'NONE',  ( -3.491481338843133355E-15, 4.327174794786742882E-16, -1.000000000000000000 ) ) ;
#233 = EDGE_CURVE ( 'NONE', #215, #215, #192, .T. ) ;
#234 = CYLINDRICAL_SURFACE ( 'NONE', #21, 0.4000000000000009659 ) ;
#235 = ADVANCED_FACE ( 'NONE', ( #218, #14 ), #127, .T. ) ;
#236 = APPROVAL_DATE_TIME ( #147, #35 ) ;
#237 = CIRCLE ( 'NONE', #171, 1.500000000000000666 ) ;
#238 = CARTESIAN_POINT ( 'NONE',  ( 0.0000000000000000000, 0.0000000000000000000, 0.0000000000000000000 ) ) ;
#239 = CC_DESIGN_PERSON_AND_ORGANIZATION_ASSIGNMENT ( #212, #178, ( #177 ) ) ;
#240 = ORIENTED_EDGE ( 'NONE', *, *, #243, .F. ) ;
#241 = EDGE_LOOP ( 'NONE', ( #209 ) ) ;
#242 = LOCAL_TIME ( 14, 57, 24.00000000000000000, #244 ) ;
#243 = EDGE_CURVE ( 'NONE', #196, #196, #82, .T. ) ;
#244 = COORDINATED_UNIVERSAL_TIME_OFFSET ( 1, 0, .AHEAD. ) ;
#245 = DIRECTION ( 'NONE',  ( 0.0000000000000000000, -1.000000000000000000, 0.0000000000000000000 ) ) ;
#246 = CC_DESIGN_DATE_AND_TIME_ASSIGNMENT ( #99, #204, ( #208 ) ) ;
#247 = EDGE_LOOP ( 'NONE', ( #11 ) ) ;
#248 = ORIENTED_EDGE ( 'NONE', *, *, #233, .F. ) ;
#249 = CARTESIAN_POINT ( 'NONE',  ( 1.501336975702547217E-13, 8.248678804640145683E-33, 43.00000000000000000 ) ) ;
#250 = PRODUCT_RELATED_PRODUCT_CATEGORY ( 'detail', '', ( #177 ) ) ;
#251 = FACE_OUTER_BOUND ( 'NONE', #195, .T. ) ;
#252 = DIRECTION ( 'NONE',  ( -3.491481338843133355E-15, 4.327174794786742882E-16, -1.000000000000000000 ) ) ;
#253 = AXIS2_PLACEMENT_3D ( 'NONE', #46, #83, #185 ) ;
#254 = COORDINATED_UNIVERSAL_TIME_OFFSET ( 1, 0, .AHEAD. ) ;
#255 = EDGE_LOOP ( 'NONE', ( #56 ) ) ;
#256 = VERTEX_POINT ( 'NONE', #198 ) ;
#257 = APPLICATION_PROTOCOL_DEFINITION ( 'international standard', 'config_control_design', 1994, #79 ) ;
#258 = AXIS2_PLACEMENT_3D ( 'NONE', #81, #163, #245 ) ;
#259 = CARTESIAN_POINT ( 'NONE',  ( 0.0000000000000000000, 0.0000000000000000000, 0.0000000000000000000 ) ) ;
#260 = DIRECTION ( 'NONE',  ( 3.491481338843133355E-15, -1.224646799147353207E-16, 1.000000000000000000 ) ) ;
#261 = PERSON_AND_ORGANIZATION ( #231, #109 ) ;
#262 = CIRCLE ( 'NONE', #184, 1.100000000000000755 ) ;
#263 = CALENDAR_DATE ( 2021, 13, 10 ) ;
ENDSEC;
END-ISO-10303-21;
