ISO-10303-21;
HEADER;
FILE_DESCRIPTION (( 'STEP AP203' ),
    '1' );
FILE_NAME ('960473.step',
    '2021-10-13T12:57:24',
    ( '' ),
    ( '' ),
    'SwSTEP 2.0',
    'SolidWorks 2019',
    '' );
FILE_SCHEMA (( 'CONFIG_CONTROL_DESIGN' ));
ENDSEC;

DATA;
#1 = PERSON_AND_ORGANIZATION ( #87, #10 ) ;
#2 = FACE_OUTER_BOUND ( 'NONE', #262, .T. ) ;
#3 = COORDINATED_UNIVERSAL_TIME_OFFSET ( 1, 0, .AHEAD. ) ;
#4 = PRODUCT_DEFINITION_SHAPE ( 'NONE', 'NONE',  #55 ) ;
#5 = DIRECTION ( 'NONE',  ( 1.510825004591027679E-30, 1.000000000000000000, 4.327174794786742389E-16 ) ) ;
#6 = PLANE ( 'NONE',  #146 ) ;
#7 = CYLINDRICAL_SURFACE ( 'NONE', #13, 1.499999999999994005 ) ;
#8 = DIRECTION ( 'NONE',  ( 1.510825004591027679E-30, 1.000000000000000000, 4.327174794786742389E-16 ) ) ;
#9 = APPROVAL ( #183, 'UNSPECIFIED' ) ;
#10 = ORGANIZATION ( 'UNSPECIFIED', 'UNSPECIFIED', '' ) ;
#11 = EDGE_CURVE ( 'NONE', #14, #14, #258, .T. ) ;
#12 = FACE_OUTER_BOUND ( 'NONE', #256, .T. ) ;
#13 = AXIS2_PLACEMENT_3D ( 'NONE', #107, #190, #102 ) ;
#14 = VERTEX_POINT ( 'NONE', #218 ) ;
#15 = DIRECTION ( 'NONE',  ( -3.491481338843133355E-15, 4.327174794786742882E-16, -1.000000000000000000 ) ) ;
#16 = AXIS2_PLACEMENT_3D ( 'NONE', #125, #48, #207 ) ;
#17 = ORIENTED_EDGE ( 'NONE', *, *, #30, .F. ) ;
#18 = ORIENTED_EDGE ( 'NONE', *, *, #112, .T. ) ;
#19 = PERSON_AND_ORGANIZATION ( #87, #10 ) ;
#20 = EDGE_LOOP ( 'NONE', ( #37 ) ) ;
#21 = COORDINATED_UNIVERSAL_TIME_OFFSET ( 1, 0, .AHEAD. ) ;
#22 = CIRCLE ( 'NONE', #130, 0.3750000000000008882 ) ;
#23 = FACE_OUTER_BOUND ( 'NONE', #196, .T. ) ;
#24 = DATE_AND_TIME ( #184, #188 ) ;
#25 = DIRECTION ( 'NONE',  ( 0.0000000000000000000, 1.000000000000000000, 0.0000000000000000000 ) ) ;
#26 = CARTESIAN_POINT ( 'NONE',  ( 1.710825856033135660E-14, -2.120315649445504249E-15, 4.900000000000000355 ) ) ;
#27 = FACE_OUTER_BOUND ( 'NONE', #33, .T. ) ;
#28 = FACE_OUTER_BOUND ( 'NONE', #177, .T. ) ;
#29 = APPROVAL_PERSON_ORGANIZATION ( #56, #232, #75 ) ;
#30 = EDGE_CURVE ( 'NONE', #150, #150, #214, .T. ) ;
#31 = ADVANCED_FACE ( 'NONE', ( #65, #250 ), #170, .T. ) ;
#32 = VERTEX_POINT ( 'NONE', #252 ) ;
#33 = EDGE_LOOP ( 'NONE', ( #202 ) ) ;
#34 = CARTESIAN_POINT ( 'NONE',  ( 1.710825856033135660E-14, -0.3750000000000029976, 4.900000000000000355 ) ) ;
#35 = PLANE ( 'NONE',  #195 ) ;
#36 = DESIGN_CONTEXT ( 'detailed design', #66, 'design' ) ;
#37 = ORIENTED_EDGE ( 'NONE', *, *, #175, .F. ) ;
#38 = COORDINATED_UNIVERSAL_TIME_OFFSET ( 1, 0, .AHEAD. ) ;
#39 = CC_DESIGN_PERSON_AND_ORGANIZATION_ASSIGNMENT ( #212, #92, ( #59 ) ) ;
#40 = CC_DESIGN_APPROVAL ( #9, ( #55 ) ) ;
#41 = APPROVAL_ROLE ( '' ) ;
#42 = ORIENTED_EDGE ( 'NONE', *, *, #11, .T. ) ;
#43 = DIRECTION ( 'NONE',  ( 0.0000000000000000000, -1.000000000000000000, 0.0000000000000000000 ) ) ;
#44 = CARTESIAN_POINT ( 'NONE',  ( 1.955229549752154679E-14, -2.423217885080576172E-15, 5.599999999999999645 ) ) ;
#45 = DATE_TIME_ROLE ( 'classification_date' ) ;
#46 = FACE_OUTER_BOUND ( 'NONE', #111, .T. ) ;
#47 = DIRECTION ( 'NONE',  ( 3.491481338843133355E-15, -4.327174794786742882E-16, 1.000000000000000000 ) ) ;
#48 = DIRECTION ( 'NONE',  ( -3.491481338843133355E-15, 1.224646799147353207E-16, -1.000000000000000000 ) ) ;
#49 = AXIS2_PLACEMENT_3D ( 'NONE', #44, #187, #166 ) ;
#50 = CARTESIAN_POINT ( 'NONE',  ( 1.710825856033135660E-14, -0.3750000000000029976, 4.900000000000000355 ) ) ;
#51 = DIRECTION ( 'NONE',  ( 3.491481338843133355E-15, -1.224646799147353207E-16, 1.000000000000000000 ) ) ;
#52 = CLOSED_SHELL ( 'NONE', ( #103, #84, #147, #57, #31, #181, #247 ) ) ;
#53 = MANIFOLD_SOLID_BREP ( 'Corps-Déplacer/Copier1[2]', #86 ) ;
#54 = EDGE_CURVE ( 'NONE', #148, #148, #240, .T. ) ;
#55 = PRODUCT_DEFINITION ( 'UNKNOWN', '', #220, #36 ) ;
#56 = PERSON_AND_ORGANIZATION ( #87, #10 ) ;
#57 = ADVANCED_FACE ( 'NONE', ( #83, #189 ), #104, .T. ) ;
#58 = DIRECTION ( 'NONE',  ( -3.491481338843133355E-15, 1.224646799147353207E-16, -1.000000000000000000 ) ) ;
#59 = PRODUCT ( '960473', '960473', '', ( #173 ) ) ;
#60 = EDGE_LOOP ( 'NONE', ( #260 ) ) ;
#61 = PERSON_AND_ORGANIZATION ( #87, #10 ) ;
#62 = CC_DESIGN_APPROVAL ( #232, ( #142 ) ) ;
#63 = DIRECTION ( 'NONE',  ( 3.491481338843133355E-15, -1.224646799147353207E-16, 1.000000000000000000 ) ) ;
#64 = CARTESIAN_POINT ( 'NONE',  ( 3.467114170508119673E-14, -4.296975293083396088E-15, 9.930209656102338300 ) ) ;
#65 = FACE_BOUND ( 'NONE', #215, .T. ) ;
#66 = APPLICATION_CONTEXT ( 'configuration controlled 3d designs of mechanical parts and assemblies' ) ;
#67 = CIRCLE ( 'NONE', #160, 1.499999999999994005 ) ;
#68 = CARTESIAN_POINT ( 'NONE',  ( 1.955229549752154679E-14, 0.3749999999999992784, 5.599999999999999645 ) ) ;
#69 = UNCERTAINTY_MEASURE_WITH_UNIT (LENGTH_MEASURE( 1.000000000000000082E-05 ), #72, 'distance_accuracy_value', 'NONE');
#70 = EDGE_LOOP ( 'NONE', ( #182 ) ) ;
#71 = APPROVAL_PERSON_ORGANIZATION ( #141, #138, #41 ) ;
#72 =( LENGTH_UNIT ( ) NAMED_UNIT ( * ) SI_UNIT ( .MILLI., .METRE. ) );
#73 = ADVANCED_FACE ( 'NONE', ( #28 ), #128, .T. ) ;
#74 = ORIENTED_EDGE ( 'NONE', *, *, #127, .T. ) ;
#75 = APPROVAL_ROLE ( '' ) ;
#76 = EDGE_LOOP ( 'NONE', ( #74 ) ) ;
#77 = APPROVAL_DATE_TIME ( #78, #232 ) ;
#78 = DATE_AND_TIME ( #137, #136 ) ;
#79 = DIRECTION ( 'NONE',  ( -3.491481338843133355E-15, 1.224646799147353207E-16, -1.000000000000000000 ) ) ;
#80 = COORDINATED_UNIVERSAL_TIME_OFFSET ( 1, 0, .AHEAD. ) ;
#81 = DIRECTION ( 'NONE',  ( 0.0000000000000000000, 1.000000000000000000, 0.0000000000000000000 ) ) ;
#82 = AXIS2_PLACEMENT_3D ( 'NONE', #222, #140, #25 ) ;
#83 = FACE_OUTER_BOUND ( 'NONE', #70, .T. ) ;
#84 = ADVANCED_FACE ( 'NONE', ( #46, #85 ), #94, .T. ) ;
#85 = FACE_BOUND ( 'NONE', #246, .T. ) ;
#86 = CLOSED_SHELL ( 'NONE', ( #217, #151, #73 ) ) ;
#87 = PERSON ( 'UNSPECIFIED', 'UNSPECIFIED', 'UNSPECIFIED', ('UNSPECIFIED'), ('UNSPECIFIED'), ('UNSPECIFIED') ) ;
#88 = PRODUCT_RELATED_PRODUCT_CATEGORY ( 'detail', '', ( #59 ) ) ;
#89 = VERTEX_POINT ( 'NONE', #50 ) ;
#90 = DIRECTION ( 'NONE',  ( 1.000000000000000000, 0.0000000000000000000, 0.0000000000000000000 ) ) ;
#91 = AXIS2_PLACEMENT_3D ( 'NONE', #211, #15, #134 ) ;
#92 = PERSON_AND_ORGANIZATION_ROLE ( 'design_owner' ) ;
#93 = CARTESIAN_POINT ( 'NONE',  ( 1.501336975702547217E-13, 1.099999999999995426, 43.00000000000000000 ) ) ;
#94 = CONICAL_SURFACE ( 'NONE', #82, 1.100000000000000755, 0.7853981633974512766 ) ;
#95 = PERSON_AND_ORGANIZATION_ROLE ( 'classification_officer' ) ;
#96 = APPLICATION_CONTEXT ( 'configuration controlled 3d designs of mechanical parts and assemblies' ) ;
#97 = APPLICATION_PROTOCOL_DEFINITION ( 'international standard', 'config_control_design', 1994, #66 ) ;
#98 = CC_DESIGN_PERSON_AND_ORGANIZATION_ASSIGNMENT ( #61, #95, ( #142 ) ) ;
#99 = APPROVAL_DATE_TIME ( #242, #9 ) ;
#100 = AXIS2_PLACEMENT_3D ( 'NONE', #235, #152, #213 ) ;
#101 = DIRECTION ( 'NONE',  ( -3.491481338843133355E-15, 1.224646799147353207E-16, -1.000000000000000000 ) ) ;
#102 = DIRECTION ( 'NONE',  ( 4.275831445896958607E-31, 1.000000000000000000, 1.224646799147353207E-16 ) ) ;
#103 = ADVANCED_FACE ( 'NONE', ( #23, #206 ), #7, .T. ) ;
#104 = CYLINDRICAL_SURFACE ( 'NONE', #109, 0.3750000000000008882 ) ;
#105 = AXIS2_PLACEMENT_3D ( 'NONE', #139, #63, #205 ) ;
#106 = ORIENTED_EDGE ( 'NONE', *, *, #112, .F. ) ;
#107 = CARTESIAN_POINT ( 'NONE',  ( 0.0000000000000000000, 0.0000000000000000000, 0.0000000000000000000 ) ) ;
#108 = LOCAL_TIME ( 14, 57, 24.00000000000000000, #80 ) ;
#109 = AXIS2_PLACEMENT_3D ( 'NONE', #224, #120, #8 ) ;
#110 = ADVANCED_BREP_SHAPE_REPRESENTATION ( '960473', ( #133, #53, #238 ), #203 ) ;
#111 = EDGE_LOOP ( 'NONE', ( #159 ) ) ;
#112 = EDGE_CURVE ( 'NONE', #116, #116, #67, .T. ) ;
#113 = FACE_OUTER_BOUND ( 'NONE', #229, .T. ) ;
#114 = ORIENTED_EDGE ( 'NONE', *, *, #191, .T. ) ;
#115 = CC_DESIGN_PERSON_AND_ORGANIZATION_ASSIGNMENT ( #1, #200, ( #220 ) ) ;
#116 = VERTEX_POINT ( 'NONE', #132 ) ;
#117 = ORIENTED_EDGE ( 'NONE', *, *, #30, .T. ) ;
#118 = CIRCLE ( 'NONE', #91, 0.4090741737109334086 ) ;
#119 = APPROVAL_DATE_TIME ( #204, #138 ) ;
#120 = DIRECTION ( 'NONE',  ( -3.491481338843133355E-15, 4.327174794786742882E-16, -1.000000000000000000 ) ) ;
#121 = PERSON_AND_ORGANIZATION ( #87, #10 ) ;
#122 = AXIS2_PLACEMENT_3D ( 'NONE', #228, #244, #5 ) ;
#123 = DIRECTION ( 'NONE',  ( 0.0000000000000000000, 1.000000000000000000, 0.0000000000000000000 ) ) ;
#124 = DATE_TIME_ROLE ( 'creation_date' ) ;
#125 = CARTESIAN_POINT ( 'NONE',  ( 1.710825856033135660E-14, -2.120315649445504249E-15, 4.900000000000000355 ) ) ;
#126 = AXIS2_PLACEMENT_3D ( 'NONE', #143, #227, #43 ) ;
#127 = EDGE_CURVE ( 'NONE', #131, #131, #22, .T. ) ;
#128 = PLANE ( 'NONE',  #105 ) ;
#129 = CC_DESIGN_PERSON_AND_ORGANIZATION_ASSIGNMENT ( #156, #245, ( #220 ) ) ;
#130 = AXIS2_PLACEMENT_3D ( 'NONE', #26, #101, #185 ) ;
#131 = VERTEX_POINT ( 'NONE', #34 ) ;
#132 = CARTESIAN_POINT ( 'NONE',  ( 3.467114170508119673E-14, -1.499999999999998224, 9.930209656102338300 ) ) ;
#133 = MANIFOLD_SOLID_BREP ( 'Corps-Déplacer/Copier1[1]', #52 ) ;
#134 = DIRECTION ( 'NONE',  ( 0.0000000000000000000, 1.000000000000000000, 0.0000000000000000000 ) ) ;
#135 = COORDINATED_UNIVERSAL_TIME_OFFSET ( 1, 0, .AHEAD. ) ;
#136 = LOCAL_TIME ( 14, 57, 24.00000000000000000, #135 ) ;
#137 = CALENDAR_DATE ( 2021, 13, 10 ) ;
#138 = APPROVAL ( #198, 'UNSPECIFIED' ) ;
#139 = CARTESIAN_POINT ( 'NONE',  ( 1.710825856033135660E-14, 1.124819836996382669E-32, 4.900000000000000355 ) ) ;
#140 = DIRECTION ( 'NONE',  ( -3.491481338843133355E-15, 1.224646799147353207E-16, -1.000000000000000000 ) ) ;
#141 = PERSON_AND_ORGANIZATION ( #87, #10 ) ;
#142 = SECURITY_CLASSIFICATION ( '', '', #261 ) ;
#143 = CARTESIAN_POINT ( 'NONE',  ( 4.118633458020178392E-14, -5.104437102452172843E-15, 11.79623505988677223 ) ) ;
#144 = DIRECTION ( 'NONE',  ( 4.275831445896958607E-31, 1.000000000000000000, 1.224646799147353207E-16 ) ) ;
#145 = CARTESIAN_POINT ( 'NONE',  ( 1.501336975702547217E-13, 8.248678804640145683E-33, 43.00000000000000000 ) ) ;
#146 = AXIS2_PLACEMENT_3D ( 'NONE', #145, #79, #144 ) ;
#147 = ADVANCED_FACE ( 'NONE', ( #2 ), #6, .F. ) ;
#148 = VERTEX_POINT ( 'NONE', #68 ) ;
#149 = DIRECTION ( 'NONE',  ( -4.275831445896958607E-31, -1.000000000000000000, -1.224646799147353207E-16 ) ) ;
#150 = VERTEX_POINT ( 'NONE', #93 ) ;
#151 = ADVANCED_FACE ( 'NONE', ( #243, #186 ), #164, .T. ) ;
#152 = DIRECTION ( 'NONE',  ( -3.491481338843133355E-15, 4.327174794786742882E-16, -1.000000000000000000 ) ) ;
#153 = CC_DESIGN_DATE_AND_TIME_ASSIGNMENT ( #165, #45, ( #142 ) ) ;
#154 = APPROVAL_PERSON_ORGANIZATION ( #19, #9, #223 ) ;
#155 = VERTEX_POINT ( 'NONE', #234 ) ;
#156 = PERSON_AND_ORGANIZATION ( #87, #10 ) ;
#157 = EDGE_LOOP ( 'NONE', ( #201 ) ) ;
#158 = CALENDAR_DATE ( 2021, 13, 10 ) ;
#159 = ORIENTED_EDGE ( 'NONE', *, *, #11, .F. ) ;
#160 = AXIS2_PLACEMENT_3D ( 'NONE', #64, #47, #163 ) ;
#161 = CC_DESIGN_DATE_AND_TIME_ASSIGNMENT ( #24, #124, ( #55 ) ) ;
#162 = SHAPE_DEFINITION_REPRESENTATION ( #4, #110 ) ;
#163 = DIRECTION ( 'NONE',  ( 0.0000000000000000000, -1.000000000000000000, 0.0000000000000000000 ) ) ;
#164 = CYLINDRICAL_SURFACE ( 'NONE', #122, 0.3750000000000008882 ) ;
#165 = DATE_AND_TIME ( #180, #179 ) ;
#166 = DIRECTION ( 'NONE',  ( 0.0000000000000000000, 1.000000000000000000, 0.0000000000000000000 ) ) ;
#167 = AXIS2_PLACEMENT_3D ( 'NONE', #168, #209, #123 ) ;
#168 = CARTESIAN_POINT ( 'NONE',  ( 1.487371050347174683E-13, -5.216995364367725042E-15, 42.60000000000000142 ) ) ;
#169 = CARTESIAN_POINT ( 'NONE',  ( 1.501336975702547217E-13, -5.265981236333618470E-15, 43.00000000000000000 ) ) ;
#170 = CONICAL_SURFACE ( 'NONE', #126, 1.999999999999995337, 0.2617993877991504625 ) ;
#171 = DIRECTION ( 'NONE',  ( 3.491481338843133355E-15, -1.224646799147353207E-16, 1.000000000000000000 ) ) ;
#172 = CC_DESIGN_PERSON_AND_ORGANIZATION_ASSIGNMENT ( #121, #221, ( #55 ) ) ;
#173 = MECHANICAL_CONTEXT ( 'NONE', #96, 'mechanical' ) ;
#174 = AXIS2_PLACEMENT_3D ( 'NONE', #197, #257, #255 ) ;
#175 = EDGE_CURVE ( 'NONE', #89, #89, #233, .T. ) ;
#176 = DIRECTION ( 'NONE',  ( -5.135813185032677695E-31, -1.000000000000000000, -1.445602896647352968E-16 ) ) ;
#177 = EDGE_LOOP ( 'NONE', ( #241 ) ) ;
#178 = CARTESIAN_POINT ( 'NONE',  ( 1.906192921252219839E-15, -6.686024735685277809E-17, 0.5459553513993053997 ) ) ;
#179 = LOCAL_TIME ( 14, 57, 24.00000000000000000, #21 ) ;
#180 = CALENDAR_DATE ( 2021, 13, 10 ) ;
#181 = ADVANCED_FACE ( 'NONE', ( #27, #254 ), #208, .F. ) ;
#182 = ORIENTED_EDGE ( 'NONE', *, *, #54, .T. ) ;
#183 = APPROVAL_STATUS ( 'not_yet_approved' ) ;
#184 = CALENDAR_DATE ( 2021, 13, 10 ) ;
#185 = DIRECTION ( 'NONE',  ( 0.0000000000000000000, -1.000000000000000000, 0.0000000000000000000 ) ) ;
#186 = FACE_OUTER_BOUND ( 'NONE', #60, .T. ) ;
#187 = DIRECTION ( 'NONE',  ( -3.491481338843133355E-15, 4.327174794786742882E-16, -1.000000000000000000 ) ) ;
#188 = LOCAL_TIME ( 14, 57, 24.00000000000000000, #3 ) ;
#189 = FACE_OUTER_BOUND ( 'NONE', #20, .T. ) ;
#190 = DIRECTION ( 'NONE',  ( -3.491481338843133355E-15, 1.224646799147353207E-16, -1.000000000000000000 ) ) ;
#191 = EDGE_CURVE ( 'NONE', #32, #32, #251, .T. ) ;
#192 = LOCAL_TIME ( 14, 57, 24.00000000000000000, #38 ) ;
#193 = CARTESIAN_POINT ( 'NONE',  ( 0.0000000000000000000, 0.0000000000000000000, 0.0000000000000000000 ) ) ;
#194 = DIRECTION ( 'NONE',  ( 0.0000000000000000000, 0.0000000000000000000, 1.000000000000000000 ) ) ;
#195 = AXIS2_PLACEMENT_3D ( 'NONE', #236, #51, #149 ) ;
#196 = EDGE_LOOP ( 'NONE', ( #18 ) ) ;
#197 = CARTESIAN_POINT ( 'NONE',  ( 4.765482303130606790E-16, -1.671506183921339482E-17, 0.1364888378498279597 ) ) ;
#198 = APPROVAL_STATUS ( 'not_yet_approved' ) ;
#199 = EDGE_LOOP ( 'NONE', ( #106 ) ) ;
#200 = PERSON_AND_ORGANIZATION_ROLE ( 'creator' ) ;
#201 = ORIENTED_EDGE ( 'NONE', *, *, #231, .T. ) ;
#202 = ORIENTED_EDGE ( 'NONE', *, *, #54, .F. ) ;
#203 =( GEOMETRIC_REPRESENTATION_CONTEXT ( 3 ) GLOBAL_UNCERTAINTY_ASSIGNED_CONTEXT ( ( #69 ) ) GLOBAL_UNIT_ASSIGNED_CONTEXT ( ( #72, #239, #237 ) ) REPRESENTATION_CONTEXT ( 'NONE', 'WORKASPACE' ) );
#204 = DATE_AND_TIME ( #158, #108 ) ;
#205 = DIRECTION ( 'NONE',  ( -4.275831445896958607E-31, -1.000000000000000000, -1.224646799147353207E-16 ) ) ;
#206 = FACE_OUTER_BOUND ( 'NONE', #263, .T. ) ;
#207 = DIRECTION ( 'NONE',  ( 0.0000000000000000000, -1.000000000000000000, 0.0000000000000000000 ) ) ;
#208 = TOROIDAL_SURFACE ( 'NONE', #100, 1.375000000000001776, 1.000000000000000222 ) ;
#209 = DIRECTION ( 'NONE',  ( -3.491481338843133355E-15, 1.224646799147353207E-16, -1.000000000000000000 ) ) ;
#210 = CC_DESIGN_SECURITY_CLASSIFICATION ( #142, ( #220 ) ) ;
#211 = CARTESIAN_POINT ( 'NONE',  ( 2.045595736363419470E-14, -2.535213409918415816E-15, 5.858819045102520384 ) ) ;
#212 = PERSON_AND_ORGANIZATION ( #87, #10 ) ;
#213 = DIRECTION ( 'NONE',  ( 1.533187357772719898E-30, 1.000000000000000000, 4.327174794786742882E-16 ) ) ;
#214 = CIRCLE ( 'NONE', #230, 1.100000000000000755 ) ;
#215 = EDGE_LOOP ( 'NONE', ( #219 ) ) ;
#216 = APPLICATION_PROTOCOL_DEFINITION ( 'international standard', 'config_control_design', 1994, #96 ) ;
#217 = ADVANCED_FACE ( 'NONE', ( #12 ), #248, .T. ) ;
#218 = CARTESIAN_POINT ( 'NONE',  ( 1.487371050347174683E-13, 1.499999999999995559, 42.60000000000000142 ) ) ;
#219 = ORIENTED_EDGE ( 'NONE', *, *, #231, .F. ) ;
#220 = PRODUCT_DEFINITION_FORMATION_WITH_SPECIFIED_SOURCE ( 'ANY', '', #59, .NOT_KNOWN. ) ;
#221 = PERSON_AND_ORGANIZATION_ROLE ( 'creator' ) ;
#222 = CARTESIAN_POINT ( 'NONE',  ( 1.501336975702547217E-13, -5.265981236333618470E-15, 43.00000000000000000 ) ) ;
#223 = APPROVAL_ROLE ( '' ) ;
#224 = CARTESIAN_POINT ( 'NONE',  ( 0.0000000000000000000, 0.0000000000000000000, 0.0000000000000000000 ) ) ;
#225 = CC_DESIGN_APPROVAL ( #138, ( #220 ) ) ;
#226 = CALENDAR_DATE ( 2021, 13, 10 ) ;
#227 = DIRECTION ( 'NONE',  ( 3.491481338843133355E-15, -4.327174794786742882E-16, 1.000000000000000000 ) ) ;
#228 = CARTESIAN_POINT ( 'NONE',  ( 0.0000000000000000000, 0.0000000000000000000, 0.0000000000000000000 ) ) ;
#229 = EDGE_LOOP ( 'NONE', ( #249 ) ) ;
#230 = AXIS2_PLACEMENT_3D ( 'NONE', #169, #58, #81 ) ;
#231 = EDGE_CURVE ( 'NONE', #155, #155, #118, .T. ) ;
#232 = APPROVAL ( #259, 'UNSPECIFIED' ) ;
#233 = CIRCLE ( 'NONE', #16, 0.3750000000000008882 ) ;
#234 = CARTESIAN_POINT ( 'NONE',  ( 2.045595736363419470E-14, 0.4090741737109309106, 5.858819045102520384 ) ) ;
#235 = CARTESIAN_POINT ( 'NONE',  ( 1.955229549752154363E-14, -2.385244779468109755E-15, 5.599999999999998757 ) ) ;
#236 = CARTESIAN_POINT ( 'NONE',  ( 1.710825856033135660E-14, 1.124819836996382669E-32, 4.900000000000000355 ) ) ;
#237 =( NAMED_UNIT ( * ) SI_UNIT ( $, .STERADIAN. ) SOLID_ANGLE_UNIT ( ) );
#238 = AXIS2_PLACEMENT_3D ( 'NONE', #193, #194, #90 ) ;
#239 =( NAMED_UNIT ( * ) PLANE_ANGLE_UNIT ( ) SI_UNIT ( $, .RADIAN. ) );
#240 = CIRCLE ( 'NONE', #49, 0.3750000000000017208 ) ;
#241 = ORIENTED_EDGE ( 'NONE', *, *, #127, .F. ) ;
#242 = DATE_AND_TIME ( #226, #192 ) ;
#243 = FACE_OUTER_BOUND ( 'NONE', #76, .T. ) ;
#244 = DIRECTION ( 'NONE',  ( -3.491481338843133355E-15, 4.327174794786742882E-16, -1.000000000000000000 ) ) ;
#245 = PERSON_AND_ORGANIZATION_ROLE ( 'design_supplier' ) ;
#246 = EDGE_LOOP ( 'NONE', ( #117 ) ) ;
#247 = ADVANCED_FACE ( 'NONE', ( #113 ), #35, .F. ) ;
#248 = CONICAL_SURFACE ( 'NONE', #253, 1.499999999999985789, 1.221730476396026610 ) ;
#249 = ORIENTED_EDGE ( 'NONE', *, *, #175, .T. ) ;
#250 = FACE_OUTER_BOUND ( 'NONE', #199, .T. ) ;
#251 = CIRCLE ( 'NONE', #174, 0.3750000000000008882 ) ;
#252 = CARTESIAN_POINT ( 'NONE',  ( 4.765482303130604818E-16, -0.3750000000000008882, 0.1364888378498279042 ) ) ;
#253 = AXIS2_PLACEMENT_3D ( 'NONE', #178, #171, #176 ) ;
#254 = FACE_OUTER_BOUND ( 'NONE', #157, .T. ) ;
#255 = DIRECTION ( 'NONE',  ( -5.135813185032616388E-31, -1.000000000000000000, -1.445602896647335712E-16 ) ) ;
#256 = EDGE_LOOP ( 'NONE', ( #114 ) ) ;
#257 = DIRECTION ( 'NONE',  ( -3.491481338843133355E-15, 1.224646799147353207E-16, -1.000000000000000000 ) ) ;
#258 = CIRCLE ( 'NONE', #167, 1.500000000000000666 ) ;
#259 = APPROVAL_STATUS ( 'not_yet_approved' ) ;
#260 = ORIENTED_EDGE ( 'NONE', *, *, #191, .F. ) ;
#261 = SECURITY_CLASSIFICATION_LEVEL ( 'unclassified' ) ;
#262 = EDGE_LOOP ( 'NONE', ( #17 ) ) ;
#263 = EDGE_LOOP ( 'NONE', ( #42 ) ) ;
ENDSEC;
END-ISO-10303-21;
