ISO-10303-21;
HEADER;
FILE_DESCRIPTION (( 'STEP AP203' ),
    '1' );
FILE_NAME ('960472.step',
    '2021-10-13T12:57:23',
    ( '' ),
    ( '' ),
    'SwSTEP 2.0',
    'SolidWorks 2019',
    '' );
FILE_SCHEMA (( 'CONFIG_CONTROL_DESIGN' ));
ENDSEC;

DATA;
#1 = ORIENTED_EDGE ( 'NONE', *, *, #230, .F. ) ;
#2 = EDGE_CURVE ( 'NONE', #153, #153, #117, .T. ) ;
#3 = PLANE ( 'NONE',  #254 ) ;
#4 = CARTESIAN_POINT ( 'NONE',  ( 4.447783482921901972E-16, -1.560072438326584708E-17, 0.1273895819931728235 ) ) ;
#5 = CYLINDRICAL_SURFACE ( 'NONE', #31, 1.499999999999994005 ) ;
#6 = DIRECTION ( 'NONE',  ( 3.491481338843133355E-15, -4.327174794786742882E-16, 1.000000000000000000 ) ) ;
#7 = CARTESIAN_POINT ( 'NONE',  ( 3.394945694718429176E-14, -1.499999999999998002, 9.723510926291559997 ) ) ;
#8 = CARTESIAN_POINT ( 'NONE',  ( 1.606081415867841343E-14, -1.990500405601901489E-15, 4.599999999999999645 ) ) ;
#9 = CARTESIAN_POINT ( 'NONE',  ( 1.606081415867841343E-14, -0.3500000000000028089, 4.599999999999999645 ) ) ;
#10 = DIRECTION ( 'NONE',  ( -4.275831445896958607E-31, -1.000000000000000000, -1.224646799147353207E-16 ) ) ;
#11 = LOCAL_TIME ( 14, 57, 23.00000000000000000, #241 ) ;
#12 = VERTEX_POINT ( 'NONE', #9 ) ;
#13 = EDGE_CURVE ( 'NONE', #91, #91, #49, .T. ) ;
#14 = SHAPE_DEFINITION_REPRESENTATION ( #133, #65 ) ;
#15 = DATE_TIME_ROLE ( 'creation_date' ) ;
#16 = EDGE_LOOP ( 'NONE', ( #239 ) ) ;
#17 = APPROVAL_DATE_TIME ( #78, #166 ) ;
#18 = ORIENTED_EDGE ( 'NONE', *, *, #122, .F. ) ;
#19 = EDGE_LOOP ( 'NONE', ( #120 ) ) ;
#20 = APPROVAL_ROLE ( '' ) ;
#21 = EDGE_CURVE ( 'NONE', #235, #235, #157, .T. ) ;
#22 = ORIENTED_EDGE ( 'NONE', *, *, #100, .T. ) ;
#23 = DIRECTION ( 'NONE',  ( 0.0000000000000000000, 1.000000000000000000, 0.0000000000000000000 ) ) ;
#24 = PRODUCT_RELATED_PRODUCT_CATEGORY ( 'detail', '', ( #152 ) ) ;
#25 = FACE_OUTER_BOUND ( 'NONE', #161, .T. ) ;
#26 = APPROVAL ( #38, 'UNSPECIFIED' ) ;
#27 = CARTESIAN_POINT ( 'NONE',  ( 1.906192921252219839E-15, -6.686024735685277809E-17, 0.5459553513993053997 ) ) ;
#28 = DIRECTION ( 'NONE',  ( 0.0000000000000000000, -1.000000000000000000, 0.0000000000000000000 ) ) ;
#29 =( NAMED_UNIT ( * ) PLANE_ANGLE_UNIT ( ) SI_UNIT ( $, .RADIAN. ) );
#30 = VERTEX_POINT ( 'NONE', #114 ) ;
#31 = AXIS2_PLACEMENT_3D ( 'NONE', #89, #69, #250 ) ;
#32 = CARTESIAN_POINT ( 'NONE',  ( 1.606081415867841343E-14, -0.3500000000000028089, 4.599999999999999645 ) ) ;
#33 = CC_DESIGN_PERSON_AND_ORGANIZATION_ASSIGNMENT ( #159, #101, ( #77 ) ) ;
#34 = VERTEX_POINT ( 'NONE', #32 ) ;
#35 = ADVANCED_FACE ( 'NONE', ( #172 ), #193, .T. ) ;
#36 =( NAMED_UNIT ( * ) SI_UNIT ( $, .STERADIAN. ) SOLID_ANGLE_UNIT ( ) );
#37 = DATE_AND_TIME ( #79, #186 ) ;
#38 = APPROVAL_STATUS ( 'not_yet_approved' ) ;
#39 = COORDINATED_UNIVERSAL_TIME_OFFSET ( 1, 0, .AHEAD. ) ;
#40 = ORIENTED_EDGE ( 'NONE', *, *, #200, .T. ) ;
#41 = CC_DESIGN_APPROVAL ( #26, ( #169 ) ) ;
#42 = DATE_TIME_ROLE ( 'classification_date' ) ;
#43 = APPROVAL ( #219, 'UNSPECIFIED' ) ;
#44 = EDGE_LOOP ( 'NONE', ( #80 ) ) ;
#45 = AXIS2_PLACEMENT_3D ( 'NONE', #53, #173, #10 ) ;
#46 = CARTESIAN_POINT ( 'NONE',  ( 1.606081415867841343E-14, -1.990500405601901489E-15, 4.599999999999999645 ) ) ;
#47 = DIRECTION ( 'NONE',  ( -3.491481338843133355E-15, 1.224646799147353207E-16, -1.000000000000000000 ) ) ;
#48 = DIRECTION ( 'NONE',  ( -3.491481338843133355E-15, 4.327174794786742882E-16, -1.000000000000000000 ) ) ;
#49 = CIRCLE ( 'NONE', #221, 1.499999999999994005 ) ;
#50 = CARTESIAN_POINT ( 'NONE',  ( 0.0000000000000000000, 0.0000000000000000000, 0.0000000000000000000 ) ) ;
#51 = CC_DESIGN_PERSON_AND_ORGANIZATION_ASSIGNMENT ( #217, #156, ( #169 ) ) ;
#52 = EDGE_LOOP ( 'NONE', ( #164 ) ) ;
#53 = CARTESIAN_POINT ( 'NONE',  ( 1.606081415867841343E-14, 1.124819836996382669E-32, 4.599999999999999645 ) ) ;
#54 = ORGANIZATION ( 'UNSPECIFIED', 'UNSPECIFIED', '' ) ;
#55 = FACE_OUTER_BOUND ( 'NONE', #52, .T. ) ;
#56 = DIRECTION ( 'NONE',  ( 0.0000000000000000000, -1.000000000000000000, 0.0000000000000000000 ) ) ;
#57 = PERSON_AND_ORGANIZATION ( #252, #54 ) ;
#58 = PERSON_AND_ORGANIZATION_ROLE ( 'design_owner' ) ;
#59 = EDGE_LOOP ( 'NONE', ( #1 ) ) ;
#60 = APPROVAL_DATE_TIME ( #222, #26 ) ;
#61 = PERSON_AND_ORGANIZATION_ROLE ( 'creator' ) ;
#62 = AXIS2_PLACEMENT_3D ( 'NONE', #145, #207, #205 ) ;
#63 = APPROVAL_PERSON_ORGANIZATION ( #160, #43, #20 ) ;
#64 = ADVANCED_FACE ( 'NONE', ( #167 ), #66, .T. ) ;
#65 = ADVANCED_BREP_SHAPE_REPRESENTATION ( '960472', ( #177, #92, #86 ), #168 ) ;
#66 = PLANE ( 'NONE',  #126 ) ;
#67 = AXIS2_PLACEMENT_3D ( 'NONE', #46, #47, #171 ) ;
#68 = LOCAL_TIME ( 14, 57, 23.00000000000000000, #135 ) ;
#69 = DIRECTION ( 'NONE',  ( -3.491481338843133355E-15, 1.224646799147353207E-16, -1.000000000000000000 ) ) ;
#70 = FACE_OUTER_BOUND ( 'NONE', #140, .T. ) ;
#71 = DIRECTION ( 'NONE',  ( 1.510825004591027855E-30, 1.000000000000000000, 4.327174794786742389E-16 ) ) ;
#72 = CIRCLE ( 'NONE', #215, 0.3500000000000008105 ) ;
#73 = FACE_OUTER_BOUND ( 'NONE', #59, .T. ) ;
#74 = ADVANCED_FACE ( 'NONE', ( #25, #226 ), #183, .T. ) ;
#75 = CC_DESIGN_DATE_AND_TIME_ASSIGNMENT ( #37, #15, ( #169 ) ) ;
#76 = ADVANCED_FACE ( 'NONE', ( #111, #187 ), #5, .T. ) ;
#77 = PRODUCT_DEFINITION_FORMATION_WITH_SPECIFIED_SOURCE ( 'ANY', '', #152, .NOT_KNOWN. ) ;
#78 = DATE_AND_TIME ( #136, #138 ) ;
#79 = CALENDAR_DATE ( 2021, 13, 10 ) ;
#80 = ORIENTED_EDGE ( 'NONE', *, *, #97, .F. ) ;
#81 = TOROIDAL_SURFACE ( 'NONE', #90, 1.350000000000001643, 1.000000000000000000 ) ;
#82 = LOCAL_TIME ( 14, 57, 23.00000000000000000, #39 ) ;
#83 = ORIENTED_EDGE ( 'NONE', *, *, #13, .F. ) ;
#84 = DIRECTION ( 'NONE',  ( 1.510825004591027855E-30, 1.000000000000000000, 4.327174794786742389E-16 ) ) ;
#85 = DIRECTION ( 'NONE',  ( -3.491481338843133355E-15, 1.224646799147353207E-16, -1.000000000000000000 ) ) ;
#86 = AXIS2_PLACEMENT_3D ( 'NONE', #155, #150, #112 ) ;
#87 = DIRECTION ( 'NONE',  ( -3.491481338843133355E-15, 1.224646799147353207E-16, -1.000000000000000000 ) ) ;
#88 = DIRECTION ( 'NONE',  ( 3.491481338843133355E-15, -1.224646799147353207E-16, 1.000000000000000000 ) ) ;
#89 = CARTESIAN_POINT ( 'NONE',  ( 0.0000000000000000000, 0.0000000000000000000, 0.0000000000000000000 ) ) ;
#90 = AXIS2_PLACEMENT_3D ( 'NONE', #213, #174, #115 ) ;
#91 = VERTEX_POINT ( 'NONE', #7 ) ;
#92 = MANIFOLD_SOLID_BREP ( 'Corps-Déplacer/Copier1[2]', #121 ) ;
#93 = CARTESIAN_POINT ( 'NONE',  ( 1.850485109586860678E-14, -2.293402641236973806E-15, 5.299999999999999822 ) ) ;
#94 = CC_DESIGN_PERSON_AND_ORGANIZATION_ASSIGNMENT ( #131, #58, ( #152 ) ) ;
#95 = FACE_OUTER_BOUND ( 'NONE', #218, .T. ) ;
#96 = DATE_AND_TIME ( #178, #82 ) ;
#97 = EDGE_CURVE ( 'NONE', #34, #34, #146, .T. ) ;
#98 = PERSON_AND_ORGANIZATION ( #252, #54 ) ;
#99 = ORIENTED_EDGE ( 'NONE', *, *, #2, .T. ) ;
#100 = EDGE_CURVE ( 'NONE', #130, #130, #182, .T. ) ;
#101 = PERSON_AND_ORGANIZATION_ROLE ( 'design_supplier' ) ;
#102 = ORIENTED_EDGE ( 'NONE', *, *, #97, .T. ) ;
#103 = AXIS2_PLACEMENT_3D ( 'NONE', #247, #48, #71 ) ;
#104 = APPLICATION_CONTEXT ( 'configuration controlled 3d designs of mechanical parts and assemblies' ) ;
#105 = ORIENTED_EDGE ( 'NONE', *, *, #100, .F. ) ;
#106 = FACE_OUTER_BOUND ( 'NONE', #223, .T. ) ;
#107 = CARTESIAN_POINT ( 'NONE',  ( 1.501336975702547217E-13, 8.248678804640145683E-33, 43.00000000000000000 ) ) ;
#108 = APPROVAL_PERSON_ORGANIZATION ( #98, #166, #179 ) ;
#109 = CARTESIAN_POINT ( 'NONE',  ( 3.394945694718429176E-14, -4.207533139708233665E-15, 9.723510926291559997 ) ) ;
#110 = ADVANCED_FACE ( 'NONE', ( #106 ), #3, .F. ) ;
#111 = FACE_OUTER_BOUND ( 'NONE', #259, .T. ) ;
#112 = DIRECTION ( 'NONE',  ( 1.000000000000000000, 0.0000000000000000000, 0.0000000000000000000 ) ) ;
#113 = CIRCLE ( 'NONE', #242, 0.3500000000000008105 ) ;
#114 = CARTESIAN_POINT ( 'NONE',  ( 4.447783482921900000E-16, -0.3500000000000008105, 0.1273895819931727680 ) ) ;
#115 = DIRECTION ( 'NONE',  ( 1.533425255146993462E-30, 1.000000000000000000, 4.327174794786742882E-16 ) ) ;
#116 = DIRECTION ( 'NONE',  ( -3.491481338843133355E-15, 1.224646799147353207E-16, -1.000000000000000000 ) ) ;
#117 = CIRCLE ( 'NONE', #142, 1.500000000000000666 ) ;
#118 = PERSON_AND_ORGANIZATION ( #252, #54 ) ;
#119 = DATE_AND_TIME ( #238, #68 ) ;
#120 = ORIENTED_EDGE ( 'NONE', *, *, #21, .F. ) ;
#121 = CLOSED_SHELL ( 'NONE', ( #35, #74, #64 ) ) ;
#122 = EDGE_CURVE ( 'NONE', #30, #30, #72, .T. ) ;
#123 = APPROVAL_STATUS ( 'not_yet_approved' ) ;
#124 = APPLICATION_PROTOCOL_DEFINITION ( 'international standard', 'config_control_design', 1994, #240 ) ;
#125 = EDGE_LOOP ( 'NONE', ( #22 ) ) ;
#126 = AXIS2_PLACEMENT_3D ( 'NONE', #225, #243, #227 ) ;
#127 = CARTESIAN_POINT ( 'NONE',  ( 1.501336975702547217E-13, -5.265981236333618470E-15, 43.00000000000000000 ) ) ;
#128 = DIRECTION ( 'NONE',  ( -5.502656983963518247E-31, -1.000000000000000000, -1.548860246407859885E-16 ) ) ;
#129 = DIRECTION ( 'NONE',  ( 0.0000000000000000000, -1.000000000000000000, 0.0000000000000000000 ) ) ;
#130 = VERTEX_POINT ( 'NONE', #209 ) ;
#131 = PERSON_AND_ORGANIZATION ( #252, #54 ) ;
#132 = CC_DESIGN_PERSON_AND_ORGANIZATION_ASSIGNMENT ( #57, #180, ( #216 ) ) ;
#133 = PRODUCT_DEFINITION_SHAPE ( 'NONE', 'NONE',  #169 ) ;
#134 = ADVANCED_FACE ( 'NONE', ( #248, #73 ), #170, .T. ) ;
#135 = COORDINATED_UNIVERSAL_TIME_OFFSET ( 1, 0, .AHEAD. ) ;
#136 = CALENDAR_DATE ( 2021, 13, 10 ) ;
#137 = APPROVAL_DATE_TIME ( #119, #43 ) ;
#138 = LOCAL_TIME ( 14, 57, 23.00000000000000000, #258 ) ;
#139 = CC_DESIGN_SECURITY_CLASSIFICATION ( #216, ( #77 ) ) ;
#140 = EDGE_LOOP ( 'NONE', ( #83 ) ) ;
#141 = DIRECTION ( 'NONE',  ( 3.491481338843133355E-15, -4.327174794786742882E-16, 1.000000000000000000 ) ) ;
#142 = AXIS2_PLACEMENT_3D ( 'NONE', #143, #148, #165 ) ;
#143 = CARTESIAN_POINT ( 'NONE',  ( 1.487371050347174683E-13, -5.216995364367725042E-15, 42.60000000000000142 ) ) ;
#144 = CARTESIAN_POINT ( 'NONE',  ( 4.046464982230487264E-14, -5.014994949077010419E-15, 11.58953633007599748 ) ) ;
#145 = CARTESIAN_POINT ( 'NONE',  ( 1.940851296198126101E-14, -2.405398166074813846E-15, 5.558819045102521450 ) ) ;
#146 = CIRCLE ( 'NONE', #67, 0.3500000000000008105 ) ;
#147 = CC_DESIGN_APPROVAL ( #43, ( #216 ) ) ;
#148 = DIRECTION ( 'NONE',  ( -3.491481338843133355E-15, 1.224646799147353207E-16, -1.000000000000000000 ) ) ;
#149 = CARTESIAN_POINT ( 'NONE',  ( 1.501336975702547217E-13, -5.265981236333618470E-15, 43.00000000000000000 ) ) ;
#150 = DIRECTION ( 'NONE',  ( 0.0000000000000000000, 0.0000000000000000000, 1.000000000000000000 ) ) ;
#151 = CARTESIAN_POINT ( 'NONE',  ( 1.487371050347174683E-13, 1.499999999999995559, 42.60000000000000142 ) ) ;
#152 = PRODUCT ( '960472', '960472', '', ( #234 ) ) ;
#153 = VERTEX_POINT ( 'NONE', #151 ) ;
#154 = ADVANCED_FACE ( 'NONE', ( #188, #70 ), #257, .T. ) ;
#155 = CARTESIAN_POINT ( 'NONE',  ( 0.0000000000000000000, 0.0000000000000000000, 0.0000000000000000000 ) ) ;
#156 = PERSON_AND_ORGANIZATION_ROLE ( 'creator' ) ;
#157 = CIRCLE ( 'NONE', #62, 0.3840741737109333309 ) ;
#158 = ORIENTED_EDGE ( 'NONE', *, *, #2, .F. ) ;
#159 = PERSON_AND_ORGANIZATION ( #252, #54 ) ;
#160 = PERSON_AND_ORGANIZATION ( #252, #54 ) ;
#161 = EDGE_LOOP ( 'NONE', ( #102 ) ) ;
#162 = AXIS2_PLACEMENT_3D ( 'NONE', #27, #88, #185 ) ;
#163 = APPROVAL_ROLE ( '' ) ;
#164 = ORIENTED_EDGE ( 'NONE', *, *, #21, .T. ) ;
#165 = DIRECTION ( 'NONE',  ( 0.0000000000000000000, 1.000000000000000000, 0.0000000000000000000 ) ) ;
#166 = APPROVAL ( #123, 'UNSPECIFIED' ) ;
#167 = FACE_OUTER_BOUND ( 'NONE', #44, .T. ) ;
#168 =( GEOMETRIC_REPRESENTATION_CONTEXT ( 3 ) GLOBAL_UNCERTAINTY_ASSIGNED_CONTEXT ( ( #176 ) ) GLOBAL_UNIT_ASSIGNED_CONTEXT ( ( #208, #29, #36 ) ) REPRESENTATION_CONTEXT ( 'NONE', 'WORKASPACE' ) );
#169 = PRODUCT_DEFINITION ( 'UNKNOWN', '', #77, #214 ) ;
#170 = CYLINDRICAL_SURFACE ( 'NONE', #103, 0.3500000000000008105 ) ;
#171 = DIRECTION ( 'NONE',  ( 0.0000000000000000000, -1.000000000000000000, 0.0000000000000000000 ) ) ;
#172 = FACE_OUTER_BOUND ( 'NONE', #16, .T. ) ;
#173 = DIRECTION ( 'NONE',  ( 3.491481338843133355E-15, -1.224646799147353207E-16, 1.000000000000000000 ) ) ;
#174 = DIRECTION ( 'NONE',  ( -3.491481338843133355E-15, 4.327174794786742882E-16, -1.000000000000000000 ) ) ;
#175 = CARTESIAN_POINT ( 'NONE',  ( 1.940851296198126101E-14, 0.3840741737109309439, 5.558819045102521450 ) ) ;
#176 = UNCERTAINTY_MEASURE_WITH_UNIT (LENGTH_MEASURE( 1.000000000000000082E-05 ), #208, 'distance_accuracy_value', 'NONE');
#177 = MANIFOLD_SOLID_BREP ( 'Corps-Déplacer/Copier1[1]', #251 ) ;
#178 = CALENDAR_DATE ( 2021, 13, 10 ) ;
#179 = APPROVAL_ROLE ( '' ) ;
#180 = PERSON_AND_ORGANIZATION_ROLE ( 'classification_officer' ) ;
#181 = ADVANCED_FACE ( 'NONE', ( #95 ), #212, .F. ) ;
#182 = CIRCLE ( 'NONE', #210, 1.100000000000000755 ) ;
#183 = CYLINDRICAL_SURFACE ( 'NONE', #262, 0.3500000000000008105 ) ;
#184 = ADVANCED_FACE ( 'NONE', ( #255, #55 ), #81, .F. ) ;
#185 = DIRECTION ( 'NONE',  ( -5.135813185032677695E-31, -1.000000000000000000, -1.445602896647352968E-16 ) ) ;
#186 = LOCAL_TIME ( 14, 57, 23.00000000000000000, #195 ) ;
#187 = FACE_OUTER_BOUND ( 'NONE', #199, .T. ) ;
#188 = FACE_BOUND ( 'NONE', #19, .T. ) ;
#189 = DIRECTION ( 'NONE',  ( -3.491481338843133355E-15, 4.327174794786742882E-16, -1.000000000000000000 ) ) ;
#190 = CIRCLE ( 'NONE', #233, 0.3500000000000016431 ) ;
#191 = CARTESIAN_POINT ( 'NONE',  ( 1.850485109586860678E-14, 0.3499999999999993672, 5.299999999999999822 ) ) ;
#192 = VERTEX_POINT ( 'NONE', #191 ) ;
#193 = CONICAL_SURFACE ( 'NONE', #162, 1.499999999999985789, 1.221730476396026610 ) ;
#194 = DIRECTION ( 'NONE',  ( 0.0000000000000000000, 1.000000000000000000, 0.0000000000000000000 ) ) ;
#195 = COORDINATED_UNIVERSAL_TIME_OFFSET ( 1, 0, .AHEAD. ) ;
#196 = ORIENTED_EDGE ( 'NONE', *, *, #200, .F. ) ;
#197 = APPROVAL_PERSON_ORGANIZATION ( #118, #26, #163 ) ;
#198 = CALENDAR_DATE ( 2021, 13, 10 ) ;
#199 = EDGE_LOOP ( 'NONE', ( #99 ) ) ;
#200 = EDGE_CURVE ( 'NONE', #192, #192, #190, .T. ) ;
#201 = SECURITY_CLASSIFICATION_LEVEL ( 'unclassified' ) ;
#202 = EDGE_LOOP ( 'NONE', ( #196 ) ) ;
#203 = DIRECTION ( 'NONE',  ( -3.491481338843133355E-15, 1.224646799147353207E-16, -1.000000000000000000 ) ) ;
#204 = DIRECTION ( 'NONE',  ( 4.275831445896958607E-31, 1.000000000000000000, 1.224646799147353207E-16 ) ) ;
#205 = DIRECTION ( 'NONE',  ( 0.0000000000000000000, 1.000000000000000000, 0.0000000000000000000 ) ) ;
#206 = CC_DESIGN_APPROVAL ( #166, ( #77 ) ) ;
#207 = DIRECTION ( 'NONE',  ( -3.491481338843133355E-15, 4.327174794786742882E-16, -1.000000000000000000 ) ) ;
#208 =( LENGTH_UNIT ( ) NAMED_UNIT ( * ) SI_UNIT ( .MILLI., .METRE. ) );
#209 = CARTESIAN_POINT ( 'NONE',  ( 1.501336975702547217E-13, 1.099999999999995426, 43.00000000000000000 ) ) ;
#210 = AXIS2_PLACEMENT_3D ( 'NONE', #127, #203, #23 ) ;
#211 = FACE_OUTER_BOUND ( 'NONE', #263, .T. ) ;
#212 = PLANE ( 'NONE',  #45 ) ;
#213 = CARTESIAN_POINT ( 'NONE',  ( 1.850485109586860363E-14, -2.385244779468109755E-15, 5.299999999999998934 ) ) ;
#214 = DESIGN_CONTEXT ( 'detailed design', #240, 'design' ) ;
#215 = AXIS2_PLACEMENT_3D ( 'NONE', #4, #87, #128 ) ;
#216 = SECURITY_CLASSIFICATION ( '', '', #201 ) ;
#217 = PERSON_AND_ORGANIZATION ( #252, #54 ) ;
#218 = EDGE_LOOP ( 'NONE', ( #260 ) ) ;
#219 = APPROVAL_STATUS ( 'not_yet_approved' ) ;
#220 = ORIENTED_EDGE ( 'NONE', *, *, #13, .T. ) ;
#221 = AXIS2_PLACEMENT_3D ( 'NONE', #109, #141, #28 ) ;
#222 = DATE_AND_TIME ( #198, #11 ) ;
#223 = EDGE_LOOP ( 'NONE', ( #105 ) ) ;
#224 = CONICAL_SURFACE ( 'NONE', #244, 1.100000000000000755, 0.7853981633974512766 ) ;
#225 = CARTESIAN_POINT ( 'NONE',  ( 1.606081415867841343E-14, 1.124819836996382669E-32, 4.599999999999999645 ) ) ;
#226 = FACE_OUTER_BOUND ( 'NONE', #231, .T. ) ;
#227 = DIRECTION ( 'NONE',  ( -4.275831445896958607E-31, -1.000000000000000000, -1.224646799147353207E-16 ) ) ;
#228 = CC_DESIGN_DATE_AND_TIME_ASSIGNMENT ( #96, #42, ( #216 ) ) ;
#229 = EDGE_LOOP ( 'NONE', ( #40 ) ) ;
#230 = EDGE_CURVE ( 'NONE', #12, #12, #113, .T. ) ;
#231 = EDGE_LOOP ( 'NONE', ( #18 ) ) ;
#232 = DIRECTION ( 'NONE',  ( 0.0000000000000000000, 1.000000000000000000, 0.0000000000000000000 ) ) ;
#233 = AXIS2_PLACEMENT_3D ( 'NONE', #93, #189, #232 ) ;
#234 = MECHANICAL_CONTEXT ( 'NONE', #104, 'mechanical' ) ;
#235 = VERTEX_POINT ( 'NONE', #175 ) ;
#236 = FACE_BOUND ( 'NONE', #125, .T. ) ;
#237 = AXIS2_PLACEMENT_3D ( 'NONE', #144, #6, #129 ) ;
#238 = CALENDAR_DATE ( 2021, 13, 10 ) ;
#239 = ORIENTED_EDGE ( 'NONE', *, *, #122, .T. ) ;
#240 = APPLICATION_CONTEXT ( 'configuration controlled 3d designs of mechanical parts and assemblies' ) ;
#241 = COORDINATED_UNIVERSAL_TIME_OFFSET ( 1, 0, .AHEAD. ) ;
#242 = AXIS2_PLACEMENT_3D ( 'NONE', #8, #253, #56 ) ;
#243 = DIRECTION ( 'NONE',  ( 3.491481338843133355E-15, -1.224646799147353207E-16, 1.000000000000000000 ) ) ;
#244 = AXIS2_PLACEMENT_3D ( 'NONE', #149, #116, #194 ) ;
#245 = DIRECTION ( 'NONE',  ( -3.491481338843133355E-15, 4.327174794786742882E-16, -1.000000000000000000 ) ) ;
#246 = CC_DESIGN_PERSON_AND_ORGANIZATION_ASSIGNMENT ( #261, #61, ( #77 ) ) ;
#247 = CARTESIAN_POINT ( 'NONE',  ( 0.0000000000000000000, 0.0000000000000000000, 0.0000000000000000000 ) ) ;
#248 = FACE_OUTER_BOUND ( 'NONE', #229, .T. ) ;
#249 = ADVANCED_FACE ( 'NONE', ( #211, #236 ), #224, .T. ) ;
#250 = DIRECTION ( 'NONE',  ( 4.275831445896958607E-31, 1.000000000000000000, 1.224646799147353207E-16 ) ) ;
#251 = CLOSED_SHELL ( 'NONE', ( #76, #249, #110, #134, #154, #184, #181 ) ) ;
#252 = PERSON ( 'UNSPECIFIED', 'UNSPECIFIED', 'UNSPECIFIED', ('UNSPECIFIED'), ('UNSPECIFIED'), ('UNSPECIFIED') ) ;
#253 = DIRECTION ( 'NONE',  ( -3.491481338843133355E-15, 1.224646799147353207E-16, -1.000000000000000000 ) ) ;
#254 = AXIS2_PLACEMENT_3D ( 'NONE', #107, #85, #204 ) ;
#255 = FACE_OUTER_BOUND ( 'NONE', #202, .T. ) ;
#256 = APPLICATION_PROTOCOL_DEFINITION ( 'international standard', 'config_control_design', 1994, #104 ) ;
#257 = CONICAL_SURFACE ( 'NONE', #237, 1.999999999999995337, 0.2617993877991502960 ) ;
#258 = COORDINATED_UNIVERSAL_TIME_OFFSET ( 1, 0, .AHEAD. ) ;
#259 = EDGE_LOOP ( 'NONE', ( #220 ) ) ;
#260 = ORIENTED_EDGE ( 'NONE', *, *, #230, .T. ) ;
#261 = PERSON_AND_ORGANIZATION ( #252, #54 ) ;
#262 = AXIS2_PLACEMENT_3D ( 'NONE', #50, #245, #84 ) ;
#263 = EDGE_LOOP ( 'NONE', ( #158 ) ) ;
ENDSEC;
END-ISO-10303-21;
