ISO-10303-21;
HEADER;
FILE_DESCRIPTION (( 'STEP AP203' ),
    '1' );
FILE_NAME ('960471.step',
    '2021-10-13T12:57:22',
    ( '' ),
    ( '' ),
    'SwSTEP 2.0',
    'SolidWorks 2019',
    '' );
FILE_SCHEMA (( 'CONFIG_CONTROL_DESIGN' ));
ENDSEC;

DATA;
#1 = CC_DESIGN_PERSON_AND_ORGANIZATION_ASSIGNMENT ( #86, #106, ( #179 ) ) ;
#2 = SECURITY_CLASSIFICATION_LEVEL ( 'unclassified' ) ;
#3 = ORIENTED_EDGE ( 'NONE', *, *, #43, .T. ) ;
#4 = AXIS2_PLACEMENT_3D ( 'NONE', #36, #118, #13 ) ;
#5 = LOCAL_TIME ( 14, 57, 22.00000000000000000, #168 ) ;
#6 = APPROVAL_STATUS ( 'not_yet_approved' ) ;
#7 = EDGE_LOOP ( 'NONE', ( #24 ) ) ;
#8 = DATE_AND_TIME ( #207, #227 ) ;
#9 = CONICAL_SURFACE ( 'NONE', #155, 1.100000000000000755, 0.7853981633974512766 ) ;
#10 = DIRECTION ( 'NONE',  ( -3.491481338843133355E-15, 1.224646799147353207E-16, -1.000000000000000000 ) ) ;
#11 = DIRECTION ( 'NONE',  ( 3.491481338843133355E-15, -1.224646799147353207E-16, 1.000000000000000000 ) ) ;
#12 = CIRCLE ( 'NONE', #161, 0.3250000000000007327 ) ;
#13 = DIRECTION ( 'NONE',  ( 1.510825004591028030E-30, 1.000000000000000000, 4.327174794786742882E-16 ) ) ;
#14 = APPLICATION_CONTEXT ( 'configuration controlled 3d designs of mechanical parts and assemblies' ) ;
#15 = DIRECTION ( 'NONE',  ( -3.491481338843133355E-15, 1.224646799147353207E-16, -1.000000000000000000 ) ) ;
#16 = PLANE ( 'NONE',  #189 ) ;
#17 = AXIS2_PLACEMENT_3D ( 'NONE', #182, #138, #239 ) ;
#18 = PERSON_AND_ORGANIZATION_ROLE ( 'design_owner' ) ;
#19 = VERTEX_POINT ( 'NONE', #262 ) ;
#20 = CARTESIAN_POINT ( 'NONE',  ( 1.487371050347174683E-13, 1.499999999999995559, 42.60000000000000142 ) ) ;
#21 = CC_DESIGN_APPROVAL ( #215, ( #179 ) ) ;
#22 = PERSON_AND_ORGANIZATION ( #134, #128 ) ;
#23 = COORDINATED_UNIVERSAL_TIME_OFFSET ( 1, 0, .AHEAD. ) ;
#24 = ORIENTED_EDGE ( 'NONE', *, *, #78, .T. ) ;
#25 = EDGE_LOOP ( 'NONE', ( #67 ) ) ;
#26 = EDGE_CURVE ( 'NONE', #139, #139, #142, .T. ) ;
#27 = CC_DESIGN_APPROVAL ( #145, ( #45 ) ) ;
#28 = LOCAL_TIME ( 14, 57, 22.00000000000000000, #23 ) ;
#29 = APPROVAL_DATE_TIME ( #8, #215 ) ;
#30 = ORIENTED_EDGE ( 'NONE', *, *, #26, .T. ) ;
#31 = DATE_AND_TIME ( #66, #246 ) ;
#32 = AXIS2_PLACEMENT_3D ( 'NONE', #258, #53, #120 ) ;
#33 = DIRECTION ( 'NONE',  ( -3.491481338843133355E-15, 1.224646799147353207E-16, -1.000000000000000000 ) ) ;
#34 = CARTESIAN_POINT ( 'NONE',  ( 1.906192921252219839E-15, -6.686024735685277809E-17, 0.5459553513993053997 ) ) ;
#35 = APPLICATION_CONTEXT ( 'configuration controlled 3d designs of mechanical parts and assemblies' ) ;
#36 = CARTESIAN_POINT ( 'NONE',  ( 0.0000000000000000000, 0.0000000000000000000, 0.0000000000000000000 ) ) ;
#37 = CC_DESIGN_PERSON_AND_ORGANIZATION_ASSIGNMENT ( #244, #247, ( #179 ) ) ;
#38 = FACE_OUTER_BOUND ( 'NONE', #169, .T. ) ;
#39 = DIRECTION ( 'NONE',  ( -4.275831445896958607E-31, -1.000000000000000000, -1.224646799147353207E-16 ) ) ;
#40 = DIRECTION ( 'NONE',  ( -3.491481338843133355E-15, 1.224646799147353207E-16, -1.000000000000000000 ) ) ;
#41 = VERTEX_POINT ( 'NONE', #20 ) ;
#42 = VERTEX_POINT ( 'NONE', #156 ) ;
#43 = EDGE_CURVE ( 'NONE', #19, #19, #12, .T. ) ;
#44 = DIRECTION ( 'NONE',  ( 4.275831445896958607E-31, 1.000000000000000000, 1.224646799147353207E-16 ) ) ;
#45 = SECURITY_CLASSIFICATION ( '', '', #2 ) ;
#46 = APPROVAL_DATE_TIME ( #250, #82 ) ;
#47 = APPROVAL_STATUS ( 'not_yet_approved' ) ;
#48 = MANIFOLD_SOLID_BREP ( 'Corps-Déplacer/Copier1[2]', #173 ) ;
#49 = DATE_AND_TIME ( #62, #5 ) ;
#50 = EDGE_LOOP ( 'NONE', ( #3 ) ) ;
#51 = MANIFOLD_SOLID_BREP ( 'Corps-Déplacer/Copier1[1]', #259 ) ;
#52 = FACE_OUTER_BOUND ( 'NONE', #50, .T. ) ;
#53 = DIRECTION ( 'NONE',  ( -3.491481338843133355E-15, 4.327174794786742882E-16, -1.000000000000000000 ) ) ;
#54 = PLANE ( 'NONE',  #99 ) ;
#55 = CARTESIAN_POINT ( 'NONE',  ( 1.501336975702547217E-13, -5.265981236333618470E-15, 43.00000000000000000 ) ) ;
#56 = CARTESIAN_POINT ( 'NONE',  ( 1.487371050347174683E-13, -5.216995364367725042E-15, 42.60000000000000142 ) ) ;
#57 = MECHANICAL_CONTEXT ( 'NONE', #14, 'mechanical' ) ;
#58 = DIRECTION ( 'NONE',  ( 0.0000000000000000000, -1.000000000000000000, 0.0000000000000000000 ) ) ;
#59 = CONICAL_SURFACE ( 'NONE', #208, 1.999999999999994449, 0.2617993877991502960 ) ;
#60 =( NAMED_UNIT ( * ) SI_UNIT ( $, .STERADIAN. ) SOLID_ANGLE_UNIT ( ) );
#61 = CARTESIAN_POINT ( 'NONE',  ( 1.501336975702547217E-13, 1.099999999999995426, 43.00000000000000000 ) ) ;
#62 = CALENDAR_DATE ( 2021, 13, 10 ) ;
#63 = EDGE_CURVE ( 'NONE', #80, #80, #94, .T. ) ;
#64 = ORIENTED_EDGE ( 'NONE', *, *, #151, .T. ) ;
#65 = AXIS2_PLACEMENT_3D ( 'NONE', #55, #33, #137 ) ;
#66 = CALENDAR_DATE ( 2021, 13, 10 ) ;
#67 = ORIENTED_EDGE ( 'NONE', *, *, #225, .F. ) ;
#68 = DIRECTION ( 'NONE',  ( -3.491481338843133355E-15, 1.224646799147353207E-16, -1.000000000000000000 ) ) ;
#69 = DIRECTION ( 'NONE',  ( 1.533668268593831421E-30, 1.000000000000000000, 4.327174794786742389E-16 ) ) ;
#70 = EDGE_CURVE ( 'NONE', #42, #42, #238, .T. ) ;
#71 = AXIS2_PLACEMENT_3D ( 'NONE', #157, #122, #263 ) ;
#72 = FACE_BOUND ( 'NONE', #210, .T. ) ;
#73 = DESIGN_CONTEXT ( 'detailed design', #35, 'design' ) ;
#74 = CARTESIAN_POINT ( 'NONE',  ( 4.130084662713191730E-16, -1.448638692731827161E-17, 0.1182903261365175346 ) ) ;
#75 = CARTESIAN_POINT ( 'NONE',  ( 1.466422162314116325E-14, -1.817413413810432326E-15, 4.200000000000000178 ) ) ;
#76 = CARTESIAN_POINT ( 'NONE',  ( 1.710825856033135660E-14, 0.3249999999999993450, 4.900000000000000355 ) ) ;
#77 = APPLICATION_PROTOCOL_DEFINITION ( 'international standard', 'config_control_design', 1994, #14 ) ;
#78 = EDGE_CURVE ( 'NONE', #199, #199, #119, .T. ) ;
#79 = PRODUCT ( '960471', '960471', '', ( #57 ) ) ;
#80 = VERTEX_POINT ( 'NONE', #124 ) ;
#81 = PLANE ( 'NONE',  #17 ) ;
#82 = APPROVAL ( #47, 'UNSPECIFIED' ) ;
#83 = COORDINATED_UNIVERSAL_TIME_OFFSET ( 1, 0, .AHEAD. ) ;
#84 = ORIENTED_EDGE ( 'NONE', *, *, #70, .T. ) ;
#85 = EDGE_LOOP ( 'NONE', ( #230 ) ) ;
#86 = PERSON_AND_ORGANIZATION ( #134, #128 ) ;
#87 = EDGE_LOOP ( 'NONE', ( #204 ) ) ;
#88 = DATE_TIME_ROLE ( 'creation_date' ) ;
#89 = EDGE_LOOP ( 'NONE', ( #84 ) ) ;
#90 = CYLINDRICAL_SURFACE ( 'NONE', #245, 1.499999999999993783 ) ;
#91 = FACE_OUTER_BOUND ( 'NONE', #185, .T. ) ;
#92 = CC_DESIGN_DATE_AND_TIME_ASSIGNMENT ( #49, #251, ( #45 ) ) ;
#93 = DIRECTION ( 'NONE',  ( -4.444453717816688354E-31, -1.000000000000000000, -1.251002506714040828E-16 ) ) ;
#94 = CIRCLE ( 'NONE', #231, 0.3250000000000007327 ) ;
#95 = APPROVAL_PERSON_ORGANIZATION ( #159, #82, #184 ) ;
#96 = DIRECTION ( 'NONE',  ( 0.0000000000000000000, -1.000000000000000000, 0.0000000000000000000 ) ) ;
#97 = DIRECTION ( 'NONE',  ( -3.491481338843133355E-15, 4.327174794786742882E-16, -1.000000000000000000 ) ) ;
#98 = FACE_BOUND ( 'NONE', #252, .T. ) ;
#99 = AXIS2_PLACEMENT_3D ( 'NONE', #193, #154, #39 ) ;
#100 = VERTEX_POINT ( 'NONE', #61 ) ;
#101 = AXIS2_PLACEMENT_3D ( 'NONE', #181, #240, #201 ) ;
#102 = ADVANCED_FACE ( 'NONE', ( #253, #72 ), #9, .T. ) ;
#103 = DIRECTION ( 'NONE',  ( 3.491481338843133355E-15, -4.327174794786742882E-16, 1.000000000000000000 ) ) ;
#104 = PRODUCT_DEFINITION_SHAPE ( 'NONE', 'NONE',  #130 ) ;
#105 = CC_DESIGN_SECURITY_CLASSIFICATION ( #45, ( #179 ) ) ;
#106 = PERSON_AND_ORGANIZATION_ROLE ( 'creator' ) ;
#107 = COORDINATED_UNIVERSAL_TIME_OFFSET ( 1, 0, .AHEAD. ) ;
#108 = APPROVAL_DATE_TIME ( #203, #145 ) ;
#109 = EDGE_LOOP ( 'NONE', ( #219 ) ) ;
#110 = APPROVAL_PERSON_ORGANIZATION ( #146, #215, #160 ) ;
#111 = PERSON_AND_ORGANIZATION ( #134, #128 ) ;
#112 = ORIENTED_EDGE ( 'NONE', *, *, #43, .F. ) ;
#113 = ADVANCED_FACE ( 'NONE', ( #191 ), #54, .T. ) ;
#114 = ORIENTED_EDGE ( 'NONE', *, *, #63, .F. ) ;
#115 = CIRCLE ( 'NONE', #65, 1.100000000000000755 ) ;
#116 = DIRECTION ( 'NONE',  ( -3.491481338843133355E-15, 1.224646799147353207E-16, -1.000000000000000000 ) ) ;
#117 = FACE_OUTER_BOUND ( 'NONE', #109, .T. ) ;
#118 = DIRECTION ( 'NONE',  ( -3.491481338843133355E-15, 4.327174794786742882E-16, -1.000000000000000000 ) ) ;
#119 = CIRCLE ( 'NONE', #212, 0.3250000000000014544 ) ;
#120 = DIRECTION ( 'NONE',  ( 0.0000000000000000000, 1.000000000000000000, 0.0000000000000000000 ) ) ;
#121 = FACE_OUTER_BOUND ( 'NONE', #175, .T. ) ;
#122 = DIRECTION ( 'NONE',  ( 3.491481338843133355E-15, -4.327174794786742882E-16, 1.000000000000000000 ) ) ;
#123 = AXIS2_PLACEMENT_3D ( 'NONE', #34, #11, #171 ) ;
#124 = CARTESIAN_POINT ( 'NONE',  ( 1.466422162314116325E-14, -0.3250000000000025646, 4.200000000000000178 ) ) ;
#125 = CC_DESIGN_DATE_AND_TIME_ASSIGNMENT ( #31, #88, ( #130 ) ) ;
#126 = FACE_OUTER_BOUND ( 'NONE', #89, .T. ) ;
#127 = FACE_OUTER_BOUND ( 'NONE', #87, .T. ) ;
#128 = ORGANIZATION ( 'UNSPECIFIED', 'UNSPECIFIED', '' ) ;
#129 = COORDINATED_UNIVERSAL_TIME_OFFSET ( 1, 0, .AHEAD. ) ;
#130 = PRODUCT_DEFINITION ( 'UNKNOWN', '', #179, #73 ) ;
#131 = CARTESIAN_POINT ( 'NONE',  ( 1.466422162314116325E-14, -1.817413413810432326E-15, 4.200000000000000178 ) ) ;
#132 = CC_DESIGN_APPROVAL ( #82, ( #130 ) ) ;
#133 = DIRECTION ( 'NONE',  ( -3.491481338843133355E-15, 4.327174794786742882E-16, -1.000000000000000000 ) ) ;
#134 = PERSON ( 'UNSPECIFIED', 'UNSPECIFIED', 'UNSPECIFIED', ('UNSPECIFIED'), ('UNSPECIFIED'), ('UNSPECIFIED') ) ;
#135 = CYLINDRICAL_SURFACE ( 'NONE', #235, 0.3250000000000007327 ) ;
#136 = CIRCLE ( 'NONE', #71, 1.499999999999993783 ) ;
#137 = DIRECTION ( 'NONE',  ( 0.0000000000000000000, 1.000000000000000000, 0.0000000000000000000 ) ) ;
#138 = DIRECTION ( 'NONE',  ( 3.491481338843133355E-15, -1.224646799147353207E-16, 1.000000000000000000 ) ) ;
#139 = VERTEX_POINT ( 'NONE', #241 ) ;
#140 = CARTESIAN_POINT ( 'NONE',  ( 3.287862405540307346E-14, -1.499999999999997780, 9.416812196480783825 ) ) ;
#141 = PERSON_AND_ORGANIZATION ( #134, #128 ) ;
#142 = CIRCLE ( 'NONE', #32, 0.3590741737109333087 ) ;
#143 = ORIENTED_EDGE ( 'NONE', *, *, #225, .T. ) ;
#144 = ADVANCED_FACE ( 'NONE', ( #214, #91 ), #135, .T. ) ;
#145 = APPROVAL ( #166, 'UNSPECIFIED' ) ;
#146 = PERSON_AND_ORGANIZATION ( #134, #128 ) ;
#147 = EDGE_LOOP ( 'NONE', ( #114 ) ) ;
#148 = DIRECTION ( 'NONE',  ( 0.0000000000000000000, -1.000000000000000000, 0.0000000000000000000 ) ) ;
#149 = FACE_OUTER_BOUND ( 'NONE', #190, .T. ) ;
#150 = FACE_OUTER_BOUND ( 'NONE', #167, .T. ) ;
#151 = EDGE_CURVE ( 'NONE', #100, #100, #115, .T. ) ;
#152 = DIRECTION ( 'NONE',  ( 0.0000000000000000000, 1.000000000000000000, 0.0000000000000000000 ) ) ;
#153 = ADVANCED_BREP_SHAPE_REPRESENTATION ( '960471', ( #51, #48, #101 ), #260 ) ;
#154 = DIRECTION ( 'NONE',  ( 3.491481338843133355E-15, -1.224646799147353207E-16, 1.000000000000000000 ) ) ;
#155 = AXIS2_PLACEMENT_3D ( 'NONE', #211, #116, #233 ) ;
#156 = CARTESIAN_POINT ( 'NONE',  ( 1.466422162314116325E-14, -0.3250000000000025646, 4.200000000000000178 ) ) ;
#157 = CARTESIAN_POINT ( 'NONE',  ( 3.287862405540307346E-14, -4.074819238385202077E-15, 9.416812196480783825 ) ) ;
#158 = ADVANCED_FACE ( 'NONE', ( #117, #121 ), #226, .F. ) ;
#159 = PERSON_AND_ORGANIZATION ( #134, #128 ) ;
#160 = APPROVAL_ROLE ( '' ) ;
#161 = AXIS2_PLACEMENT_3D ( 'NONE', #74, #15, #93 ) ;
#162 = ORIENTED_EDGE ( 'NONE', *, *, #70, .F. ) ;
#163 = ADVANCED_FACE ( 'NONE', ( #149, #38 ), #90, .T. ) ;
#164 = PRODUCT_RELATED_PRODUCT_CATEGORY ( 'detail', '', ( #79 ) ) ;
#165 = CALENDAR_DATE ( 2021, 13, 10 ) ;
#166 = APPROVAL_STATUS ( 'not_yet_approved' ) ;
#167 = EDGE_LOOP ( 'NONE', ( #162 ) ) ;
#168 = COORDINATED_UNIVERSAL_TIME_OFFSET ( 1, 0, .AHEAD. ) ;
#169 = EDGE_LOOP ( 'NONE', ( #143 ) ) ;
#170 = DIRECTION ( 'NONE',  ( 4.275831445896958607E-31, 1.000000000000000000, 1.224646799147353207E-16 ) ) ;
#171 = DIRECTION ( 'NONE',  ( -5.135813185032677695E-31, -1.000000000000000000, -1.445602896647352968E-16 ) ) ;
#172 = UNCERTAINTY_MEASURE_WITH_UNIT (LENGTH_MEASURE( 1.000000000000000082E-05 ), #261, 'distance_accuracy_value', 'NONE');
#173 = CLOSED_SHELL ( 'NONE', ( #177, #144, #113 ) ) ;
#174 = ORIENTED_EDGE ( 'NONE', *, *, #213, .T. ) ;
#175 = EDGE_LOOP ( 'NONE', ( #30 ) ) ;
#176 = VERTEX_POINT ( 'NONE', #140 ) ;
#177 = ADVANCED_FACE ( 'NONE', ( #52 ), #198, .T. ) ;
#178 = AXIS2_PLACEMENT_3D ( 'NONE', #131, #10, #148 ) ;
#179 = PRODUCT_DEFINITION_FORMATION_WITH_SPECIFIED_SOURCE ( 'ANY', '', #79, .NOT_KNOWN. ) ;
#180 = DIRECTION ( 'NONE',  ( 0.0000000000000000000, 1.000000000000000000, 0.0000000000000000000 ) ) ;
#181 = CARTESIAN_POINT ( 'NONE',  ( 0.0000000000000000000, 0.0000000000000000000, 0.0000000000000000000 ) ) ;
#182 = CARTESIAN_POINT ( 'NONE',  ( 1.466422162314116325E-14, 1.124819836996382669E-32, 4.200000000000000178 ) ) ;
#183 = PERSON_AND_ORGANIZATION_ROLE ( 'classification_officer' ) ;
#184 = APPROVAL_ROLE ( '' ) ;
#185 = EDGE_LOOP ( 'NONE', ( #112 ) ) ;
#186 = ADVANCED_FACE ( 'NONE', ( #216, #150 ), #236, .T. ) ;
#187 = CC_DESIGN_PERSON_AND_ORGANIZATION_ASSIGNMENT ( #111, #183, ( #45 ) ) ;
#188 = PERSON_AND_ORGANIZATION_ROLE ( 'creator' ) ;
#189 = AXIS2_PLACEMENT_3D ( 'NONE', #220, #40, #44 ) ;
#190 = EDGE_LOOP ( 'NONE', ( #174 ) ) ;
#191 = FACE_OUTER_BOUND ( 'NONE', #147, .T. ) ;
#192 = DIRECTION ( 'NONE',  ( -3.491481338843133355E-15, 4.327174794786742882E-16, -1.000000000000000000 ) ) ;
#193 = CARTESIAN_POINT ( 'NONE',  ( 1.466422162314116325E-14, 1.124819836996382669E-32, 4.200000000000000178 ) ) ;
#194 = LOCAL_TIME ( 14, 57, 22.00000000000000000, #83 ) ;
#195 = ORIENTED_EDGE ( 'NONE', *, *, #63, .T. ) ;
#196 = CARTESIAN_POINT ( 'NONE',  ( 1.710825856033135344E-14, -2.168404344971008868E-15, 4.899999999999999467 ) ) ;
#197 = CARTESIAN_POINT ( 'NONE',  ( 3.939381693052364172E-14, -4.882281047753978043E-15, 11.28283760026521598 ) ) ;
#198 = CONICAL_SURFACE ( 'NONE', #123, 1.499999999999985789, 1.221730476396026610 ) ;
#199 = VERTEX_POINT ( 'NONE', #76 ) ;
#200 = ADVANCED_FACE ( 'NONE', ( #126 ), #81, .F. ) ;
#201 = DIRECTION ( 'NONE',  ( 1.000000000000000000, 0.0000000000000000000, 0.0000000000000000000 ) ) ;
#202 = CC_DESIGN_PERSON_AND_ORGANIZATION_ASSIGNMENT ( #22, #188, ( #130 ) ) ;
#203 = DATE_AND_TIME ( #205, #28 ) ;
#204 = ORIENTED_EDGE ( 'NONE', *, *, #151, .F. ) ;
#205 = CALENDAR_DATE ( 2021, 13, 10 ) ;
#206 = EDGE_LOOP ( 'NONE', ( #195 ) ) ;
#207 = CALENDAR_DATE ( 2021, 13, 10 ) ;
#208 = AXIS2_PLACEMENT_3D ( 'NONE', #197, #103, #58 ) ;
#209 = ADVANCED_FACE ( 'NONE', ( #127 ), #16, .F. ) ;
#210 = EDGE_LOOP ( 'NONE', ( #64 ) ) ;
#211 = CARTESIAN_POINT ( 'NONE',  ( 1.501336975702547217E-13, -5.265981236333618470E-15, 43.00000000000000000 ) ) ;
#212 = AXIS2_PLACEMENT_3D ( 'NONE', #257, #133, #152 ) ;
#213 = EDGE_CURVE ( 'NONE', #176, #176, #136, .T. ) ;
#214 = FACE_OUTER_BOUND ( 'NONE', #206, .T. ) ;
#215 = APPROVAL ( #6, 'UNSPECIFIED' ) ;
#216 = FACE_OUTER_BOUND ( 'NONE', #7, .T. ) ;
#217 = CARTESIAN_POINT ( 'NONE',  ( 0.0000000000000000000, 0.0000000000000000000, 0.0000000000000000000 ) ) ;
#218 = AXIS2_PLACEMENT_3D ( 'NONE', #196, #192, #69 ) ;
#219 = ORIENTED_EDGE ( 'NONE', *, *, #78, .F. ) ;
#220 = CARTESIAN_POINT ( 'NONE',  ( 1.501336975702547217E-13, 8.248678804640145683E-33, 43.00000000000000000 ) ) ;
#221 = PERSON_AND_ORGANIZATION ( #134, #128 ) ;
#222 = CIRCLE ( 'NONE', #256, 1.500000000000000666 ) ;
#223 = APPROVAL_PERSON_ORGANIZATION ( #141, #145, #229 ) ;
#224 = FACE_OUTER_BOUND ( 'NONE', #85, .T. ) ;
#225 = EDGE_CURVE ( 'NONE', #41, #41, #222, .T. ) ;
#226 = TOROIDAL_SURFACE ( 'NONE', #218, 1.325000000000001510, 1.000000000000000000 ) ;
#227 = LOCAL_TIME ( 14, 57, 22.00000000000000000, #107 ) ;
#228 = SHAPE_DEFINITION_REPRESENTATION ( #104, #153 ) ;
#229 = APPROVAL_ROLE ( '' ) ;
#230 = ORIENTED_EDGE ( 'NONE', *, *, #213, .F. ) ;
#231 = AXIS2_PLACEMENT_3D ( 'NONE', #75, #255, #96 ) ;
#232 = APPLICATION_PROTOCOL_DEFINITION ( 'international standard', 'config_control_design', 1994, #35 ) ;
#233 = DIRECTION ( 'NONE',  ( 0.0000000000000000000, 1.000000000000000000, 0.0000000000000000000 ) ) ;
#234 = CARTESIAN_POINT ( 'NONE',  ( 0.0000000000000000000, 0.0000000000000000000, 0.0000000000000000000 ) ) ;
#235 = AXIS2_PLACEMENT_3D ( 'NONE', #217, #97, #237 ) ;
#236 = CYLINDRICAL_SURFACE ( 'NONE', #4, 0.3250000000000007327 ) ;
#237 = DIRECTION ( 'NONE',  ( 1.510825004591028030E-30, 1.000000000000000000, 4.327174794786742882E-16 ) ) ;
#238 = CIRCLE ( 'NONE', #178, 0.3250000000000007327 ) ;
#239 = DIRECTION ( 'NONE',  ( -4.275831445896958607E-31, -1.000000000000000000, -1.224646799147353207E-16 ) ) ;
#240 = DIRECTION ( 'NONE',  ( 0.0000000000000000000, 0.0000000000000000000, 1.000000000000000000 ) ) ;
#241 = CARTESIAN_POINT ( 'NONE',  ( 1.801192042644400766E-14, 0.3590741737109310883, 5.158819045102521983 ) ) ;
#242 =( NAMED_UNIT ( * ) PLANE_ANGLE_UNIT ( ) SI_UNIT ( $, .RADIAN. ) );
#243 = DIRECTION ( 'NONE',  ( -3.491481338843133355E-15, 1.224646799147353207E-16, -1.000000000000000000 ) ) ;
#244 = PERSON_AND_ORGANIZATION ( #134, #128 ) ;
#245 = AXIS2_PLACEMENT_3D ( 'NONE', #234, #68, #170 ) ;
#246 = LOCAL_TIME ( 14, 57, 22.00000000000000000, #129 ) ;
#247 = PERSON_AND_ORGANIZATION_ROLE ( 'design_supplier' ) ;
#248 = ORIENTED_EDGE ( 'NONE', *, *, #26, .F. ) ;
#249 = ADVANCED_FACE ( 'NONE', ( #98, #224 ), #59, .T. ) ;
#250 = DATE_AND_TIME ( #165, #194 ) ;
#251 = DATE_TIME_ROLE ( 'classification_date' ) ;
#252 = EDGE_LOOP ( 'NONE', ( #248 ) ) ;
#253 = FACE_OUTER_BOUND ( 'NONE', #25, .T. ) ;
#254 = CC_DESIGN_PERSON_AND_ORGANIZATION_ASSIGNMENT ( #221, #18, ( #79 ) ) ;
#255 = DIRECTION ( 'NONE',  ( -3.491481338843133355E-15, 1.224646799147353207E-16, -1.000000000000000000 ) ) ;
#256 = AXIS2_PLACEMENT_3D ( 'NONE', #56, #243, #180 ) ;
#257 = CARTESIAN_POINT ( 'NONE',  ( 1.710825856033135660E-14, -2.120315649445504249E-15, 4.900000000000000355 ) ) ;
#258 = CARTESIAN_POINT ( 'NONE',  ( 1.801192042644400766E-14, -2.232311174283344682E-15, 5.158819045102521983 ) ) ;
#259 = CLOSED_SHELL ( 'NONE', ( #163, #102, #209, #186, #249, #158, #200 ) ) ;
#260 =( GEOMETRIC_REPRESENTATION_CONTEXT ( 3 ) GLOBAL_UNCERTAINTY_ASSIGNED_CONTEXT ( ( #172 ) ) GLOBAL_UNIT_ASSIGNED_CONTEXT ( ( #261, #242, #60 ) ) REPRESENTATION_CONTEXT ( 'NONE', 'WORKASPACE' ) );
#261 =( LENGTH_UNIT ( ) NAMED_UNIT ( * ) SI_UNIT ( .MILLI., .METRE. ) );
#262 = CARTESIAN_POINT ( 'NONE',  ( 4.130084662713190251E-16, -0.3250000000000007327, 0.1182903261365174929 ) ) ;
#263 = DIRECTION ( 'NONE',  ( 0.0000000000000000000, -1.000000000000000000, 0.0000000000000000000 ) ) ;
ENDSEC;
END-ISO-10303-21;
