ISO-10303-21;
HEADER;
FILE_DESCRIPTION (( 'STEP AP203' ),
    '1' );
FILE_NAME ('960470.step',
    '2021-10-13T12:57:22',
    ( '' ),
    ( '' ),
    'SwSTEP 2.0',
    'SolidWorks 2019',
    '' );
FILE_SCHEMA (( 'CONFIG_CONTROL_DESIGN' ));
ENDSEC;

DATA;
#1 = AXIS2_PLACEMENT_3D ( 'NONE', #9, #34, #135 ) ;
#2 = COORDINATED_UNIVERSAL_TIME_OFFSET ( 1, 0, .AHEAD. ) ;
#3 = PERSON_AND_ORGANIZATION ( #177, #158 ) ;
#4 = CC_DESIGN_PERSON_AND_ORGANIZATION_ASSIGNMENT ( #193, #145, ( #236 ) ) ;
#5 = CC_DESIGN_APPROVAL ( #50, ( #236 ) ) ;
#6 = PERSON_AND_ORGANIZATION ( #177, #158 ) ;
#7 = PERSON_AND_ORGANIZATION ( #177, #158 ) ;
#8 = ORIENTED_EDGE ( 'NONE', *, *, #112, .F. ) ;
#9 = CARTESIAN_POINT ( 'NONE',  ( 1.312796983405018394E-13, -4.604671964794046935E-15, 37.60000000000000853 ) ) ;
#10 = PRODUCT ( '960470', '960470', '', ( #205 ) ) ;
#11 = DIRECTION ( 'NONE',  ( -3.491481338843133355E-15, 1.224646799147352714E-16, -1.000000000000000000 ) ) ;
#12 = DIRECTION ( 'NONE',  ( -3.491481338843133355E-15, 4.327174794786742882E-16, -1.000000000000000000 ) ) ;
#13 = DIRECTION ( 'NONE',  ( 4.275831445896956855E-31, 1.000000000000000000, 1.224646799147352714E-16 ) ) ;
#14 = UNCERTAINTY_MEASURE_WITH_UNIT (LENGTH_MEASURE( 1.000000000000000082E-05 ), #258, 'distance_accuracy_value', 'NONE');
#15 = FACE_OUTER_BOUND ( 'NONE', #213, .T. ) ;
#16 = PRODUCT_DEFINITION ( 'UNKNOWN', '', #236, #185 ) ;
#17 = CARTESIAN_POINT ( 'NONE',  ( 1.661532789090675117E-14, 0.3340741737109312326, 4.758819045102521628 ) ) ;
#18 = CC_DESIGN_APPROVAL ( #148, ( #16 ) ) ;
#19 =( NAMED_UNIT ( * ) SI_UNIT ( $, .STERADIAN. ) SOLID_ANGLE_UNIT ( ) );
#20 = ADVANCED_FACE ( 'NONE', ( #220 ), #139, .F. ) ;
#21 = CARTESIAN_POINT ( 'NONE',  ( 3.180779116362177311E-14, -3.942105337062162601E-15, 9.110113466669982785 ) ) ;
#22 = AXIS2_PLACEMENT_3D ( 'NONE', #141, #57, #40 ) ;
#23 = EDGE_LOOP ( 'NONE', ( #196 ) ) ;
#24 = EDGE_CURVE ( 'NONE', #164, #164, #157, .T. ) ;
#25 = DATE_TIME_ROLE ( 'creation_date' ) ;
#26 = AXIS2_PLACEMENT_3D ( 'NONE', #233, #31, #74 ) ;
#27 = CALENDAR_DATE ( 2021, 13, 10 ) ;
#28 = CC_DESIGN_PERSON_AND_ORGANIZATION_ASSIGNMENT ( #7, #210, ( #39 ) ) ;
#29 = EDGE_LOOP ( 'NONE', ( #230 ) ) ;
#30 = EDGE_LOOP ( 'NONE', ( #130 ) ) ;
#31 = DIRECTION ( 'NONE',  ( -3.491481338843133355E-15, 1.224646799147352714E-16, -1.000000000000000000 ) ) ;
#32 = APPROVAL_PERSON_ORGANIZATION ( #3, #148, #89 ) ;
#33 = DIRECTION ( 'NONE',  ( 0.0000000000000000000, 1.000000000000000000, 0.0000000000000000000 ) ) ;
#34 = DIRECTION ( 'NONE',  ( -3.491481338843133355E-15, 1.224646799147352714E-16, -1.000000000000000000 ) ) ;
#35 = DIRECTION ( 'NONE',  ( -3.491481338843133355E-15, 1.224646799147352714E-16, -1.000000000000000000 ) ) ;
#36 = CC_DESIGN_PERSON_AND_ORGANIZATION_ASSIGNMENT ( #56, #223, ( #10 ) ) ;
#37 = VERTEX_POINT ( 'NONE', #263 ) ;
#38 = DIRECTION ( 'NONE',  ( 0.0000000000000000000, 1.000000000000000000, 0.0000000000000000000 ) ) ;
#39 = SECURITY_CLASSIFICATION ( '', '', #168 ) ;
#40 = DIRECTION ( 'NONE',  ( 1.533916564941688092E-30, 1.000000000000000000, 4.327174794786742882E-16 ) ) ;
#41 = APPROVAL_ROLE ( '' ) ;
#42 = ORIENTED_EDGE ( 'NONE', *, *, #97, .T. ) ;
#43 = ADVANCED_FACE ( 'NONE', ( #200 ), #256, .T. ) ;
#44 = AXIS2_PLACEMENT_3D ( 'NONE', #116, #71, #257 ) ;
#45 = CALENDAR_DATE ( 2021, 13, 10 ) ;
#46 = CALENDAR_DATE ( 2021, 13, 10 ) ;
#47 = EDGE_LOOP ( 'NONE', ( #207 ) ) ;
#48 = EDGE_LOOP ( 'NONE', ( #140 ) ) ;
#49 = CARTESIAN_POINT ( 'NONE',  ( 1.361677722148822009E-14, -1.687598169966829763E-15, 3.899999999999999911 ) ) ;
#50 = APPROVAL ( #109, 'UNSPECIFIED' ) ;
#51 = CONICAL_SURFACE ( 'NONE', #44, 1.999999999999994449, 0.2617993877991502960 ) ;
#52 = DIRECTION ( 'NONE',  ( -3.491481338843133355E-15, 1.224646799147352714E-16, -1.000000000000000000 ) ) ;
#53 = FACE_OUTER_BOUND ( 'NONE', #175, .T. ) ;
#54 = FACE_OUTER_BOUND ( 'NONE', #182, .T. ) ;
#55 = CIRCLE ( 'NONE', #76, 0.3340741737109332865 ) ;
#56 = PERSON_AND_ORGANIZATION ( #177, #158 ) ;
#57 = DIRECTION ( 'NONE',  ( -3.491481338843133355E-15, 4.327174794786742882E-16, -1.000000000000000000 ) ) ;
#58 = VERTEX_POINT ( 'NONE', #246 ) ;
#59 = DIRECTION ( 'NONE',  ( 1.510825004591028205E-30, 1.000000000000000000, 4.327174794786742882E-16 ) ) ;
#60 = CIRCLE ( 'NONE', #118, 1.099999999999990985 ) ;
#61 = CARTESIAN_POINT ( 'NONE',  ( 1.571166602479410010E-14, -1.947228657654033902E-15, 4.500000000000000000 ) ) ;
#62 = PRODUCT_DEFINITION_SHAPE ( 'NONE', 'NONE',  #16 ) ;
#63 = PERSON_AND_ORGANIZATION ( #177, #158 ) ;
#64 = EDGE_CURVE ( 'NONE', #83, #83, #142, .T. ) ;
#65 = EDGE_LOOP ( 'NONE', ( #214 ) ) ;
#66 = CALENDAR_DATE ( 2021, 13, 10 ) ;
#67 = LOCAL_TIME ( 14, 57, 22.00000000000000000, #131 ) ;
#68 = MANIFOLD_SOLID_BREP ( 'Corps-Déplacer/Copier1[1]', #87 ) ;
#69 = EDGE_LOOP ( 'NONE', ( #215 ) ) ;
#70 = ORIENTED_EDGE ( 'NONE', *, *, #162, .T. ) ;
#71 = DIRECTION ( 'NONE',  ( 3.491481338843133355E-15, -4.327174794786742882E-16, 1.000000000000000000 ) ) ;
#72 = ADVANCED_FACE ( 'NONE', ( #138, #115 ), #161, .T. ) ;
#73 = FACE_OUTER_BOUND ( 'NONE', #48, .T. ) ;
#74 = DIRECTION ( 'NONE',  ( 0.0000000000000000000, -1.000000000000000000, 0.0000000000000000000 ) ) ;
#75 = CIRCLE ( 'NONE', #147, 1.499999999999988232 ) ;
#76 = AXIS2_PLACEMENT_3D ( 'NONE', #198, #12, #237 ) ;
#77 = DIRECTION ( 'NONE',  ( -4.275831445896956855E-31, -1.000000000000000000, -1.224646799147352714E-16 ) ) ;
#78 = ADVANCED_FACE ( 'NONE', ( #218, #199 ), #51, .T. ) ;
#79 = FACE_BOUND ( 'NONE', #232, .T. ) ;
#80 = CYLINDRICAL_SURFACE ( 'NONE', #217, 0.3000000000000006550 ) ;
#81 = FACE_OUTER_BOUND ( 'NONE', #167, .T. ) ;
#82 = DIRECTION ( 'NONE',  ( -3.491481338843133355E-15, 4.327174794786742882E-16, -1.000000000000000000 ) ) ;
#83 = VERTEX_POINT ( 'NONE', #99 ) ;
#84 = ADVANCED_FACE ( 'NONE', ( #15, #79 ), #92, .T. ) ;
#85 = ORIENTED_EDGE ( 'NONE', *, *, #97, .F. ) ;
#86 = CALENDAR_DATE ( 2021, 13, 10 ) ;
#87 = CLOSED_SHELL ( 'NONE', ( #72, #84, #101, #134, #78, #184, #20 ) ) ;
#88 = CIRCLE ( 'NONE', #153, 0.3000000000000013767 ) ;
#89 = APPROVAL_ROLE ( '' ) ;
#90 = ORIENTED_EDGE ( 'NONE', *, *, #259, .F. ) ;
#91 = PLANE ( 'NONE',  #114 ) ;
#92 = CONICAL_SURFACE ( 'NONE', #226, 1.099999999999990985, 0.7853981633974504994 ) ;
#93 = PRODUCT_RELATED_PRODUCT_CATEGORY ( 'detail', '', ( #10 ) ) ;
#94 = DIRECTION ( 'NONE',  ( 1.510825004591028205E-30, 1.000000000000000000, 4.327174794786742882E-16 ) ) ;
#95 = DIRECTION ( 'NONE',  ( -4.814824860968079123E-31, -1.000000000000000000, -1.355252715606877584E-16 ) ) ;
#96 = DIRECTION ( 'NONE',  ( -3.491481338843133355E-15, 1.224646799147352714E-16, -1.000000000000000000 ) ) ;
#97 = EDGE_CURVE ( 'NONE', #244, #244, #221, .T. ) ;
#98 = LOCAL_TIME ( 14, 57, 22.00000000000000000, #151 ) ;
#99 = CARTESIAN_POINT ( 'NONE',  ( 3.812385842504486911E-16, -0.3000000000000006550, 0.1091910702798624261 ) ) ;
#100 = DIRECTION ( 'NONE',  ( -5.135813185032677695E-31, -1.000000000000000000, -1.445602896647352968E-16 ) ) ;
#101 = ADVANCED_FACE ( 'NONE', ( #136 ), #91, .F. ) ;
#102 = LOCAL_TIME ( 14, 57, 22.00000000000000000, #247 ) ;
#103 = DIRECTION ( 'NONE',  ( 0.0000000000000000000, 0.0000000000000000000, 1.000000000000000000 ) ) ;
#104 = DIRECTION ( 'NONE',  ( 3.491481338843133355E-15, -4.327174794786742882E-16, 1.000000000000000000 ) ) ;
#105 = APPROVAL ( #146, 'UNSPECIFIED' ) ;
#106 = DATE_AND_TIME ( #46, #67 ) ;
#107 = APPROVAL_DATE_TIME ( #108, #148 ) ;
#108 = DATE_AND_TIME ( #45, #187 ) ;
#109 = APPROVAL_STATUS ( 'not_yet_approved' ) ;
#110 = AXIS2_PLACEMENT_3D ( 'NONE', #49, #216, #178 ) ;
#111 = AXIS2_PLACEMENT_3D ( 'NONE', #179, #35, #95 ) ;
#112 = EDGE_CURVE ( 'NONE', #241, #241, #240, .T. ) ;
#113 = CYLINDRICAL_SURFACE ( 'NONE', #170, 0.3000000000000006550 ) ;
#114 = AXIS2_PLACEMENT_3D ( 'NONE', #176, #254, #235 ) ;
#115 = FACE_OUTER_BOUND ( 'NONE', #132, .T. ) ;
#116 = CARTESIAN_POINT ( 'NONE',  ( 3.832298403874241711E-14, -4.749567146430947244E-15, 10.97613887045443803 ) ) ;
#117 = CARTESIAN_POINT ( 'NONE',  ( 1.906192921252219839E-15, -6.686024735685275344E-17, 0.5459553513993053997 ) ) ;
#118 = AXIS2_PLACEMENT_3D ( 'NONE', #234, #96, #33 ) ;
#119 = CARTESIAN_POINT ( 'NONE',  ( 1.326762908760390675E-13, -4.653657836759941152E-15, 38.00000000000000711 ) ) ;
#120 = DIRECTION ( 'NONE',  ( 0.0000000000000000000, -1.000000000000000000, 0.0000000000000000000 ) ) ;
#121 = CARTESIAN_POINT ( 'NONE',  ( 1.312796983405018394E-13, 1.499999999999985789, 37.60000000000000853 ) ) ;
#122 = AXIS2_PLACEMENT_3D ( 'NONE', #180, #156, #77 ) ;
#123 = APPROVAL_PERSON_ORGANIZATION ( #63, #50, #41 ) ;
#124 = DIRECTION ( 'NONE',  ( -3.491481338843133355E-15, 4.327174794786742882E-16, -1.000000000000000000 ) ) ;
#125 = VERTEX_POINT ( 'NONE', #206 ) ;
#126 = CC_DESIGN_PERSON_AND_ORGANIZATION_ASSIGNMENT ( #250, #231, ( #16 ) ) ;
#127 = COORDINATED_UNIVERSAL_TIME_OFFSET ( 1, 0, .AHEAD. ) ;
#128 = DATE_AND_TIME ( #86, #98 ) ;
#129 =( GEOMETRIC_REPRESENTATION_CONTEXT ( 3 ) GLOBAL_UNCERTAINTY_ASSIGNED_CONTEXT ( ( #14 ) ) GLOBAL_UNIT_ASSIGNED_CONTEXT ( ( #258, #143, #19 ) ) REPRESENTATION_CONTEXT ( 'NONE', 'WORKASPACE' ) );
#130 = ORIENTED_EDGE ( 'NONE', *, *, #169, .T. ) ;
#131 = COORDINATED_UNIVERSAL_TIME_OFFSET ( 1, 0, .AHEAD. ) ;
#132 = EDGE_LOOP ( 'NONE', ( #42 ) ) ;
#133 = DATE_TIME_ROLE ( 'classification_date' ) ;
#134 = ADVANCED_FACE ( 'NONE', ( #73, #54 ), #113, .T. ) ;
#135 = DIRECTION ( 'NONE',  ( 0.0000000000000000000, 1.000000000000000000, 0.0000000000000000000 ) ) ;
#136 = FACE_OUTER_BOUND ( 'NONE', #195, .T. ) ;
#137 = CONICAL_SURFACE ( 'NONE', #201, 1.499999999999985789, 1.221730476396026610 ) ;
#138 = FACE_OUTER_BOUND ( 'NONE', #252, .T. ) ;
#139 = PLANE ( 'NONE',  #122 ) ;
#140 = ORIENTED_EDGE ( 'NONE', *, *, #262, .T. ) ;
#141 = CARTESIAN_POINT ( 'NONE',  ( 1.571166602479410010E-14, -1.951563910473907981E-15, 4.500000000000000000 ) ) ;
#142 = CIRCLE ( 'NONE', #111, 0.3000000000000006550 ) ;
#143 =( NAMED_UNIT ( * ) PLANE_ANGLE_UNIT ( ) SI_UNIT ( $, .RADIAN. ) );
#144 = DIRECTION ( 'NONE',  ( 1.000000000000000000, 0.0000000000000000000, 0.0000000000000000000 ) ) ;
#145 = PERSON_AND_ORGANIZATION_ROLE ( 'creator' ) ;
#146 = APPROVAL_STATUS ( 'not_yet_approved' ) ;
#147 = AXIS2_PLACEMENT_3D ( 'NONE', #21, #104, #120 ) ;
#148 = APPROVAL ( #174, 'UNSPECIFIED' ) ;
#149 = APPROVAL_DATE_TIME ( #106, #50 ) ;
#150 = EDGE_LOOP ( 'NONE', ( #90 ) ) ;
#151 = COORDINATED_UNIVERSAL_TIME_OFFSET ( 1, 0, .AHEAD. ) ;
#152 = ORIENTED_EDGE ( 'NONE', *, *, #259, .T. ) ;
#153 = AXIS2_PLACEMENT_3D ( 'NONE', #61, #124, #38 ) ;
#154 = DIRECTION ( 'NONE',  ( -4.275831445896956855E-31, -1.000000000000000000, -1.224646799147352714E-16 ) ) ;
#155 = DIRECTION ( 'NONE',  ( -3.491481338843133355E-15, 4.327174794786742882E-16, -1.000000000000000000 ) ) ;
#156 = DIRECTION ( 'NONE',  ( 3.491481338843133355E-15, -1.224646799147352714E-16, 1.000000000000000000 ) ) ;
#157 = CIRCLE ( 'NONE', #110, 0.3000000000000006550 ) ;
#158 = ORGANIZATION ( 'UNSPECIFIED', 'UNSPECIFIED', '' ) ;
#159 = DIRECTION ( 'NONE',  ( 0.0000000000000000000, 1.000000000000000000, 0.0000000000000000000 ) ) ;
#160 = MANIFOLD_SOLID_BREP ( 'Corps-Déplacer/Copier1[2]', #203 ) ;
#161 = CYLINDRICAL_SURFACE ( 'NONE', #204, 1.499999999999988232 ) ;
#162 = EDGE_CURVE ( 'NONE', #37, #37, #60, .T. ) ;
#163 = CARTESIAN_POINT ( 'NONE',  ( 0.0000000000000000000, 0.0000000000000000000, 0.0000000000000000000 ) ) ;
#164 = VERTEX_POINT ( 'NONE', #224 ) ;
#165 = CARTESIAN_POINT ( 'NONE',  ( 0.0000000000000000000, 0.0000000000000000000, 0.0000000000000000000 ) ) ;
#166 = DATE_AND_TIME ( #66, #102 ) ;
#167 = EDGE_LOOP ( 'NONE', ( #211 ) ) ;
#168 = SECURITY_CLASSIFICATION_LEVEL ( 'unclassified' ) ;
#169 = EDGE_CURVE ( 'NONE', #243, #243, #55, .T. ) ;
#170 = AXIS2_PLACEMENT_3D ( 'NONE', #219, #155, #94 ) ;
#171 = ORIENTED_EDGE ( 'NONE', *, *, #162, .F. ) ;
#172 = APPROVAL_DATE_TIME ( #225, #105 ) ;
#173 = ADVANCED_FACE ( 'NONE', ( #53 ), #137, .T. ) ;
#174 = APPROVAL_STATUS ( 'not_yet_approved' ) ;
#175 = EDGE_LOOP ( 'NONE', ( #228 ) ) ;
#176 = CARTESIAN_POINT ( 'NONE',  ( 1.326762908760390675E-13, 8.248678804640074524E-33, 38.00000000000000711 ) ) ;
#177 = PERSON ( 'UNSPECIFIED', 'UNSPECIFIED', 'UNSPECIFIED', ('UNSPECIFIED'), ('UNSPECIFIED'), ('UNSPECIFIED') ) ;
#178 = DIRECTION ( 'NONE',  ( 0.0000000000000000000, -1.000000000000000000, 0.0000000000000000000 ) ) ;
#179 = CARTESIAN_POINT ( 'NONE',  ( 3.812385842504488390E-16, -1.337204947137072079E-17, 0.1091910702798624677 ) ) ;
#180 = CARTESIAN_POINT ( 'NONE',  ( 1.361677722148822009E-14, 1.124819836996381300E-32, 3.899999999999999911 ) ) ;
#181 = CC_DESIGN_SECURITY_CLASSIFICATION ( #39, ( #236 ) ) ;
#182 = EDGE_LOOP ( 'NONE', ( #8 ) ) ;
#183 = APPLICATION_CONTEXT ( 'configuration controlled 3d designs of mechanical parts and assemblies' ) ;
#184 = ADVANCED_FACE ( 'NONE', ( #222, #186 ), #251, .F. ) ;
#185 = DESIGN_CONTEXT ( 'detailed design', #188, 'design' ) ;
#186 = FACE_OUTER_BOUND ( 'NONE', #30, .T. ) ;
#187 = LOCAL_TIME ( 14, 57, 22.00000000000000000, #2 ) ;
#188 = APPLICATION_CONTEXT ( 'configuration controlled 3d designs of mechanical parts and assemblies' ) ;
#189 = APPLICATION_PROTOCOL_DEFINITION ( 'international standard', 'config_control_design', 1994, #183 ) ;
#190 = DIRECTION ( 'NONE',  ( 3.491481338843133355E-15, -1.224646799147352714E-16, 1.000000000000000000 ) ) ;
#191 = CC_DESIGN_DATE_AND_TIME_ASSIGNMENT ( #128, #25, ( #16 ) ) ;
#192 = AXIS2_PLACEMENT_3D ( 'NONE', #253, #197, #154 ) ;
#193 = PERSON_AND_ORGANIZATION ( #177, #158 ) ;
#194 = LOCAL_TIME ( 14, 57, 22.00000000000000000, #127 ) ;
#195 = EDGE_LOOP ( 'NONE', ( #171 ) ) ;
#196 = ORIENTED_EDGE ( 'NONE', *, *, #24, .F. ) ;
#197 = DIRECTION ( 'NONE',  ( 3.491481338843133355E-15, -1.224646799147352714E-16, 1.000000000000000000 ) ) ;
#198 = CARTESIAN_POINT ( 'NONE',  ( 1.661532789090675117E-14, -2.059224182491874731E-15, 4.758819045102521628 ) ) ;
#199 = FACE_OUTER_BOUND ( 'NONE', #150, .T. ) ;
#200 = FACE_OUTER_BOUND ( 'NONE', #23, .T. ) ;
#201 = AXIS2_PLACEMENT_3D ( 'NONE', #117, #190, #100 ) ;
#202 = CARTESIAN_POINT ( 'NONE',  ( 1.361677722148822009E-14, -0.3000000000000023759, 3.899999999999999911 ) ) ;
#203 = CLOSED_SHELL ( 'NONE', ( #173, #242, #43 ) ) ;
#204 = AXIS2_PLACEMENT_3D ( 'NONE', #238, #52, #13 ) ;
#205 = MECHANICAL_CONTEXT ( 'NONE', #183, 'mechanical' ) ;
#206 = CARTESIAN_POINT ( 'NONE',  ( 1.571166602479410010E-14, 0.2999999999999994338, 4.500000000000000000 ) ) ;
#207 = ORIENTED_EDGE ( 'NONE', *, *, #112, .T. ) ;
#208 = ADVANCED_BREP_SHAPE_REPRESENTATION ( '960470', ( #68, #160, #260 ), #129 ) ;
#209 = CC_DESIGN_PERSON_AND_ORGANIZATION_ASSIGNMENT ( #227, #229, ( #236 ) ) ;
#210 = PERSON_AND_ORGANIZATION_ROLE ( 'classification_officer' ) ;
#211 = ORIENTED_EDGE ( 'NONE', *, *, #24, .T. ) ;
#212 = APPROVAL_ROLE ( '' ) ;
#213 = EDGE_LOOP ( 'NONE', ( #85 ) ) ;
#214 = ORIENTED_EDGE ( 'NONE', *, *, #169, .F. ) ;
#215 = ORIENTED_EDGE ( 'NONE', *, *, #64, .F. ) ;
#216 = DIRECTION ( 'NONE',  ( -3.491481338843133355E-15, 1.224646799147352714E-16, -1.000000000000000000 ) ) ;
#217 = AXIS2_PLACEMENT_3D ( 'NONE', #163, #82, #59 ) ;
#218 = FACE_BOUND ( 'NONE', #65, .T. ) ;
#219 = CARTESIAN_POINT ( 'NONE',  ( 0.0000000000000000000, 0.0000000000000000000, 0.0000000000000000000 ) ) ;
#220 = FACE_OUTER_BOUND ( 'NONE', #47, .T. ) ;
#221 = CIRCLE ( 'NONE', #1, 1.499999999999990230 ) ;
#222 = FACE_OUTER_BOUND ( 'NONE', #29, .T. ) ;
#223 = PERSON_AND_ORGANIZATION_ROLE ( 'design_owner' ) ;
#224 = CARTESIAN_POINT ( 'NONE',  ( 1.361677722148822009E-14, -0.3000000000000023759, 3.899999999999999911 ) ) ;
#225 = DATE_AND_TIME ( #27, #194 ) ;
#226 = AXIS2_PLACEMENT_3D ( 'NONE', #119, #11, #159 ) ;
#227 = PERSON_AND_ORGANIZATION ( #177, #158 ) ;
#228 = ORIENTED_EDGE ( 'NONE', *, *, #64, .T. ) ;
#229 = PERSON_AND_ORGANIZATION_ROLE ( 'design_supplier' ) ;
#230 = ORIENTED_EDGE ( 'NONE', *, *, #262, .F. ) ;
#231 = PERSON_AND_ORGANIZATION_ROLE ( 'creator' ) ;
#232 = EDGE_LOOP ( 'NONE', ( #70 ) ) ;
#233 = CARTESIAN_POINT ( 'NONE',  ( 1.361677722148822009E-14, -1.687598169966829763E-15, 3.899999999999999911 ) ) ;
#234 = CARTESIAN_POINT ( 'NONE',  ( 1.326762908760390675E-13, -4.653657836759941152E-15, 38.00000000000000711 ) ) ;
#235 = DIRECTION ( 'NONE',  ( 4.275831445896956855E-31, 1.000000000000000000, 1.224646799147352714E-16 ) ) ;
#236 = PRODUCT_DEFINITION_FORMATION_WITH_SPECIFIED_SOURCE ( 'ANY', '', #10, .NOT_KNOWN. ) ;
#237 = DIRECTION ( 'NONE',  ( 0.0000000000000000000, 1.000000000000000000, 0.0000000000000000000 ) ) ;
#238 = CARTESIAN_POINT ( 'NONE',  ( 0.0000000000000000000, 0.0000000000000000000, 0.0000000000000000000 ) ) ;
#239 = FACE_OUTER_BOUND ( 'NONE', #69, .T. ) ;
#240 = CIRCLE ( 'NONE', #26, 0.3000000000000006550 ) ;
#241 = VERTEX_POINT ( 'NONE', #202 ) ;
#242 = ADVANCED_FACE ( 'NONE', ( #81, #239 ), #80, .T. ) ;
#243 = VERTEX_POINT ( 'NONE', #17 ) ;
#244 = VERTEX_POINT ( 'NONE', #121 ) ;
#245 = CC_DESIGN_DATE_AND_TIME_ASSIGNMENT ( #166, #133, ( #39 ) ) ;
#246 = CARTESIAN_POINT ( 'NONE',  ( 3.180779116362177311E-14, -1.499999999999992228, 9.110113466669982785 ) ) ;
#247 = COORDINATED_UNIVERSAL_TIME_OFFSET ( 1, 0, .AHEAD. ) ;
#248 = APPROVAL_PERSON_ORGANIZATION ( #6, #105, #212 ) ;
#249 = SHAPE_DEFINITION_REPRESENTATION ( #62, #208 ) ;
#250 = PERSON_AND_ORGANIZATION ( #177, #158 ) ;
#251 = TOROIDAL_SURFACE ( 'NONE', #22, 1.300000000000001377, 1.000000000000000000 ) ;
#252 = EDGE_LOOP ( 'NONE', ( #152 ) ) ;
#253 = CARTESIAN_POINT ( 'NONE',  ( 1.361677722148822009E-14, 1.124819836996381300E-32, 3.899999999999999911 ) ) ;
#254 = DIRECTION ( 'NONE',  ( -3.491481338843133355E-15, 1.224646799147352714E-16, -1.000000000000000000 ) ) ;
#255 = CC_DESIGN_APPROVAL ( #105, ( #39 ) ) ;
#256 = PLANE ( 'NONE',  #192 ) ;
#257 = DIRECTION ( 'NONE',  ( 0.0000000000000000000, -1.000000000000000000, 0.0000000000000000000 ) ) ;
#258 =( LENGTH_UNIT ( ) NAMED_UNIT ( * ) SI_UNIT ( .MILLI., .METRE. ) );
#259 = EDGE_CURVE ( 'NONE', #58, #58, #75, .T. ) ;
#260 = AXIS2_PLACEMENT_3D ( 'NONE', #165, #103, #144 ) ;
#261 = APPLICATION_PROTOCOL_DEFINITION ( 'international standard', 'config_control_design', 1994, #188 ) ;
#262 = EDGE_CURVE ( 'NONE', #125, #125, #88, .T. ) ;
#263 = CARTESIAN_POINT ( 'NONE',  ( 1.326762908760390675E-13, 1.099999999999986322, 38.00000000000000711 ) ) ;
ENDSEC;
END-ISO-10303-21;
