ISO-10303-21;
HEADER;
FILE_DESCRIPTION (( 'STEP AP203' ),
    '1' );
FILE_NAME ('960469.step',
    '2021-10-13T12:57:21',
    ( '' ),
    ( '' ),
    'SwSTEP 2.0',
    'SolidWorks 2019',
    '' );
FILE_SCHEMA (( 'CONFIG_CONTROL_DESIGN' ));
ENDSEC;

DATA;
#1 = APPLICATION_CONTEXT ( 'configuration controlled 3d designs of mechanical parts and assemblies' ) ;
#2 = VERTEX_POINT ( 'NONE', #164 ) ;
#3 =( NAMED_UNIT ( * ) SI_UNIT ( $, .STERADIAN. ) SOLID_ANGLE_UNIT ( ) );
#4 = DIRECTION ( 'NONE',  ( -3.491481338843133355E-15, 1.224646799147352714E-16, -1.000000000000000000 ) ) ;
#5 = APPROVAL_ROLE ( '' ) ;
#6 = CIRCLE ( 'NONE', #161, 1.499999999999988232 ) ;
#7 = PERSON_AND_ORGANIZATION ( #212, #39 ) ;
#8 = CARTESIAN_POINT ( 'NONE',  ( 1.326762908760390675E-13, -4.653657836759941152E-15, 38.00000000000000711 ) ) ;
#9 = DATE_AND_TIME ( #215, #102 ) ;
#10 = EDGE_LOOP ( 'NONE', ( #221 ) ) ;
#11 = DIRECTION ( 'NONE',  ( 3.491481338843133355E-15, -4.327174794786742882E-16, 1.000000000000000000 ) ) ;
#12 = DIRECTION ( 'NONE',  ( -3.491481338843133355E-15, 1.224646799147352714E-16, -1.000000000000000000 ) ) ;
#13 = ORIENTED_EDGE ( 'NONE', *, *, #19, .T. ) ;
#14 = FACE_OUTER_BOUND ( 'NONE', #83, .T. ) ;
#15 = ORIENTED_EDGE ( 'NONE', *, *, #23, .T. ) ;
#16 = CARTESIAN_POINT ( 'NONE',  ( 1.431507348925684360E-14, -1.774141665862564148E-15, 4.099999999999999645 ) ) ;
#17 = AXIS2_PLACEMENT_3D ( 'NONE', #79, #242, #57 ) ;
#18 = CALENDAR_DATE ( 2021, 13, 10 ) ;
#19 = EDGE_CURVE ( 'NONE', #146, #146, #43, .T. ) ;
#20 = CALENDAR_DATE ( 2021, 13, 10 ) ;
#21 = CIRCLE ( 'NONE', #89, 1.499999999999990230 ) ;
#22 = PERSON_AND_ORGANIZATION ( #212, #39 ) ;
#23 = EDGE_CURVE ( 'NONE', #2, #2, #123, .T. ) ;
#24 = ORIENTED_EDGE ( 'NONE', *, *, #27, .T. ) ;
#25 = LOCAL_TIME ( 14, 57, 21.00000000000000000, #210 ) ;
#26 = COORDINATED_UNIVERSAL_TIME_OFFSET ( 1, 0, .AHEAD. ) ;
#27 = EDGE_CURVE ( 'NONE', #95, #95, #150, .T. ) ;
#28 = FACE_OUTER_BOUND ( 'NONE', #251, .T. ) ;
#29 = DIRECTION ( 'NONE',  ( 0.0000000000000000000, 1.000000000000000000, 0.0000000000000000000 ) ) ;
#30 = AXIS2_PLACEMENT_3D ( 'NONE', #236, #12, #90 ) ;
#31 = EDGE_CURVE ( 'NONE', #76, #76, #6, .T. ) ;
#32 = EDGE_LOOP ( 'NONE', ( #160 ) ) ;
#33 = DIRECTION ( 'NONE',  ( -4.275831445896956855E-31, -1.000000000000000000, -1.224646799147352714E-16 ) ) ;
#34 = DIRECTION ( 'NONE',  ( 1.510825004591027679E-30, 1.000000000000000000, 4.327174794786742389E-16 ) ) ;
#35 = DIRECTION ( 'NONE',  ( 3.491481338843133355E-15, -1.224646799147352714E-16, 1.000000000000000000 ) ) ;
#36 = EDGE_CURVE ( 'NONE', #74, #74, #38, .T. ) ;
#37 = DIRECTION ( 'NONE',  ( -3.501690807976783821E-31, -1.000000000000000000, -9.856383386231834175E-17 ) ) ;
#38 = CIRCLE ( 'NONE', #178, 0.2750000000000006883 ) ;
#39 = ORGANIZATION ( 'UNSPECIFIED', 'UNSPECIFIED', '' ) ;
#40 = MECHANICAL_CONTEXT ( 'NONE', #84, 'mechanical' ) ;
#41 = APPLICATION_PROTOCOL_DEFINITION ( 'international standard', 'config_control_design', 1994, #84 ) ;
#42 = CARTESIAN_POINT ( 'NONE',  ( 1.256933281983528008E-14, -1.557782926123227398E-15, 3.600000000000000089 ) ) ;
#43 = CIRCLE ( 'NONE', #175, 0.3090741737109332643 ) ;
#44 = CARTESIAN_POINT ( 'NONE',  ( 1.312796983405018394E-13, 1.499999999999985789, 37.60000000000000853 ) ) ;
#45 = DIRECTION ( 'NONE',  ( -3.491481338843133355E-15, 1.224646799147352714E-16, -1.000000000000000000 ) ) ;
#46 = PERSON_AND_ORGANIZATION ( #212, #39 ) ;
#47 = APPROVAL_PERSON_ORGANIZATION ( #98, #139, #244 ) ;
#48 = PRODUCT_DEFINITION ( 'UNKNOWN', '', #127, #201 ) ;
#49 = ORIENTED_EDGE ( 'NONE', *, *, #31, .T. ) ;
#50 = LOCAL_TIME ( 14, 57, 21.00000000000000000, #96 ) ;
#51 = DIRECTION ( 'NONE',  ( 1.534170318352135268E-30, 1.000000000000000000, 4.327174794786742882E-16 ) ) ;
#52 = CARTESIAN_POINT ( 'NONE',  ( 1.256933281983528008E-14, 1.124819836996381300E-32, 3.600000000000000089 ) ) ;
#53 = AXIS2_PLACEMENT_3D ( 'NONE', #55, #137, #239 ) ;
#54 = EDGE_LOOP ( 'NONE', ( #87 ) ) ;
#55 = CARTESIAN_POINT ( 'NONE',  ( 0.0000000000000000000, 0.0000000000000000000, 0.0000000000000000000 ) ) ;
#56 = FACE_BOUND ( 'NONE', #203, .T. ) ;
#57 = DIRECTION ( 'NONE',  ( 1.000000000000000000, 0.0000000000000000000, 0.0000000000000000000 ) ) ;
#58 = PRODUCT_DEFINITION_SHAPE ( 'NONE', 'NONE',  #48 ) ;
#59 = CALENDAR_DATE ( 2021, 13, 10 ) ;
#60 = PERSON_AND_ORGANIZATION_ROLE ( 'creator' ) ;
#61 =( LENGTH_UNIT ( ) NAMED_UNIT ( * ) SI_UNIT ( .MILLI., .METRE. ) );
#62 = CARTESIAN_POINT ( 'NONE',  ( 1.521873535536949782E-14, -1.886137190700404779E-15, 4.358819045102520384 ) ) ;
#63 = CIRCLE ( 'NONE', #85, 0.2750000000000012990 ) ;
#64 = DIRECTION ( 'NONE',  ( -3.491481338843133355E-15, 4.327174794786742882E-16, -1.000000000000000000 ) ) ;
#65 = CC_DESIGN_APPROVAL ( #185, ( #127 ) ) ;
#66 = DIRECTION ( 'NONE',  ( 0.0000000000000000000, 1.000000000000000000, 0.0000000000000000000 ) ) ;
#67 = DIRECTION ( 'NONE',  ( 4.275831445896956855E-31, 1.000000000000000000, 1.224646799147352714E-16 ) ) ;
#68 = EDGE_LOOP ( 'NONE', ( #158 ) ) ;
#69 = FACE_OUTER_BOUND ( 'NONE', #54, .T. ) ;
#70 = FACE_OUTER_BOUND ( 'NONE', #114, .T. ) ;
#71 = CIRCLE ( 'NONE', #226, 0.2750000000000006883 ) ;
#72 = APPROVAL ( #194, 'UNSPECIFIED' ) ;
#73 = CARTESIAN_POINT ( 'NONE',  ( 1.431507348925684045E-14, -1.734723475976807094E-15, 4.099999999999998757 ) ) ;
#74 = VERTEX_POINT ( 'NONE', #186 ) ;
#75 = MANIFOLD_SOLID_BREP ( 'Corps-Déplacer/Copier1[2]', #118 ) ;
#76 = VERTEX_POINT ( 'NONE', #119 ) ;
#77 = ADVANCED_FACE ( 'NONE', ( #245, #105 ), #195, .T. ) ;
#78 = APPLICATION_PROTOCOL_DEFINITION ( 'international standard', 'config_control_design', 1994, #1 ) ;
#79 = CARTESIAN_POINT ( 'NONE',  ( 0.0000000000000000000, 0.0000000000000000000, 0.0000000000000000000 ) ) ;
#80 = DIRECTION ( 'NONE',  ( 0.0000000000000000000, -1.000000000000000000, 0.0000000000000000000 ) ) ;
#81 = CC_DESIGN_DATE_AND_TIME_ASSIGNMENT ( #144, #100, ( #48 ) ) ;
#82 = SECURITY_CLASSIFICATION ( '', '', #147 ) ;
#83 = EDGE_LOOP ( 'NONE', ( #13 ) ) ;
#84 = APPLICATION_CONTEXT ( 'configuration controlled 3d designs of mechanical parts and assemblies' ) ;
#85 = AXIS2_PLACEMENT_3D ( 'NONE', #16, #121, #188 ) ;
#86 = CC_DESIGN_PERSON_AND_ORGANIZATION_ASSIGNMENT ( #117, #60, ( #48 ) ) ;
#87 = ORIENTED_EDGE ( 'NONE', *, *, #36, .T. ) ;
#88 = CC_DESIGN_PERSON_AND_ORGANIZATION_ASSIGNMENT ( #214, #174, ( #127 ) ) ;
#89 = AXIS2_PLACEMENT_3D ( 'NONE', #138, #255, #66 ) ;
#90 = DIRECTION ( 'NONE',  ( 4.275831445896956855E-31, 1.000000000000000000, 1.224646799147352714E-16 ) ) ;
#91 = ORIENTED_EDGE ( 'NONE', *, *, #27, .F. ) ;
#92 = CARTESIAN_POINT ( 'NONE',  ( 1.256933281983528008E-14, 1.124819836996381300E-32, 3.600000000000000089 ) ) ;
#93 = PLANE ( 'NONE',  #246 ) ;
#94 = AXIS2_PLACEMENT_3D ( 'NONE', #92, #258, #33 ) ;
#95 = VERTEX_POINT ( 'NONE', #125 ) ;
#96 = COORDINATED_UNIVERSAL_TIME_OFFSET ( 1, 0, .AHEAD. ) ;
#97 = CONICAL_SURFACE ( 'NONE', #132, 1.099999999999990985, 0.7853981633974504994 ) ;
#98 = PERSON_AND_ORGANIZATION ( #212, #39 ) ;
#99 = DIRECTION ( 'NONE',  ( 3.491481338843133355E-15, -4.327174794786742882E-16, 1.000000000000000000 ) ) ;
#100 = DATE_TIME_ROLE ( 'creation_date' ) ;
#101 = PRODUCT ( '960469', '960469', '', ( #40 ) ) ;
#102 = LOCAL_TIME ( 14, 57, 21.00000000000000000, #172 ) ;
#103 = APPROVAL_DATE_TIME ( #107, #72 ) ;
#104 = PERSON_AND_ORGANIZATION ( #212, #39 ) ;
#105 = FACE_OUTER_BOUND ( 'NONE', #10, .T. ) ;
#106 = AXIS2_PLACEMENT_3D ( 'NONE', #159, #11, #224 ) ;
#107 = DATE_AND_TIME ( #231, #199 ) ;
#108 = DIRECTION ( 'NONE',  ( -4.275831445896956855E-31, -1.000000000000000000, -1.224646799147352714E-16 ) ) ;
#109 = ADVANCED_BREP_SHAPE_REPRESENTATION ( '960469', ( #257, #75, #17 ), #237 ) ;
#110 = AXIS2_PLACEMENT_3D ( 'NONE', #42, #45, #145 ) ;
#111 = FACE_OUTER_BOUND ( 'NONE', #177, .T. ) ;
#112 = ORIENTED_EDGE ( 'NONE', *, *, #249, .F. ) ;
#113 = DIRECTION ( 'NONE',  ( -3.491481338843133355E-15, 1.224646799147352714E-16, -1.000000000000000000 ) ) ;
#114 = EDGE_LOOP ( 'NONE', ( #217 ) ) ;
#115 = ADVANCED_FACE ( 'NONE', ( #167 ), #157, .F. ) ;
#116 = CARTESIAN_POINT ( 'NONE',  ( 3.494687022295780121E-16, -1.225771201542316534E-17, 0.1000918144232072204 ) ) ;
#117 = PERSON_AND_ORGANIZATION ( #212, #39 ) ;
#118 = CLOSED_SHELL ( 'NONE', ( #134, #120, #170 ) ) ;
#119 = CARTESIAN_POINT ( 'NONE',  ( 3.073695827184054219E-14, -1.499999999999992228, 8.803414736859203060 ) ) ;
#120 = ADVANCED_FACE ( 'NONE', ( #69, #70 ), #222, .T. ) ;
#121 = DIRECTION ( 'NONE',  ( -3.491481338843133355E-15, 4.327174794786742882E-16, -1.000000000000000000 ) ) ;
#122 = PERSON_AND_ORGANIZATION_ROLE ( 'design_owner' ) ;
#123 = CIRCLE ( 'NONE', #110, 0.2750000000000006883 ) ;
#124 = DIRECTION ( 'NONE',  ( 0.0000000000000000000, 1.000000000000000000, 0.0000000000000000000 ) ) ;
#125 = CARTESIAN_POINT ( 'NONE',  ( 1.326762908760390675E-13, 1.099999999999986322, 38.00000000000000711 ) ) ;
#126 = DATE_TIME_ROLE ( 'classification_date' ) ;
#127 = PRODUCT_DEFINITION_FORMATION_WITH_SPECIFIED_SOURCE ( 'ANY', '', #101, .NOT_KNOWN. ) ;
#128 = ADVANCED_FACE ( 'NONE', ( #56, #225 ), #233, .T. ) ;
#129 = EDGE_LOOP ( 'NONE', ( #24 ) ) ;
#130 = CARTESIAN_POINT ( 'NONE',  ( 1.326762908760390675E-13, -4.653657836759941152E-15, 38.00000000000000711 ) ) ;
#131 = DIRECTION ( 'NONE',  ( -3.491481338843133355E-15, 1.224646799147352714E-16, -1.000000000000000000 ) ) ;
#132 = AXIS2_PLACEMENT_3D ( 'NONE', #130, #131, #29 ) ;
#133 = FACE_OUTER_BOUND ( 'NONE', #252, .T. ) ;
#134 = ADVANCED_FACE ( 'NONE', ( #218 ), #187, .T. ) ;
#135 = EDGE_LOOP ( 'NONE', ( #15 ) ) ;
#136 = UNCERTAINTY_MEASURE_WITH_UNIT (LENGTH_MEASURE( 1.000000000000000082E-05 ), #61, 'distance_accuracy_value', 'NONE');
#137 = DIRECTION ( 'NONE',  ( -3.491481338843133355E-15, 4.327174794786742882E-16, -1.000000000000000000 ) ) ;
#138 = CARTESIAN_POINT ( 'NONE',  ( 1.312796983405018394E-13, -4.604671964794046935E-15, 37.60000000000000853 ) ) ;
#139 = APPROVAL ( #169, 'UNSPECIFIED' ) ;
#140 = AXIS2_PLACEMENT_3D ( 'NONE', #8, #211, #124 ) ;
#141 = APPROVAL_DATE_TIME ( #207, #139 ) ;
#142 = VERTEX_POINT ( 'NONE', #227 ) ;
#143 = VERTEX_POINT ( 'NONE', #166 ) ;
#144 = DATE_AND_TIME ( #59, #50 ) ;
#145 = DIRECTION ( 'NONE',  ( 0.0000000000000000000, -1.000000000000000000, 0.0000000000000000000 ) ) ;
#146 = VERTEX_POINT ( 'NONE', #228 ) ;
#147 = SECURITY_CLASSIFICATION_LEVEL ( 'unclassified' ) ;
#148 = EDGE_LOOP ( 'NONE', ( #91 ) ) ;
#149 = APPROVAL_DATE_TIME ( #263, #185 ) ;
#150 = CIRCLE ( 'NONE', #140, 1.099999999999990985 ) ;
#151 = PERSON_AND_ORGANIZATION_ROLE ( 'classification_officer' ) ;
#152 = CARTESIAN_POINT ( 'NONE',  ( 0.0000000000000000000, 0.0000000000000000000, 0.0000000000000000000 ) ) ;
#153 = PERSON_AND_ORGANIZATION_ROLE ( 'design_supplier' ) ;
#154 = ADVANCED_FACE ( 'NONE', ( #133, #253 ), #97, .T. ) ;
#155 = AXIS2_PLACEMENT_3D ( 'NONE', #73, #162, #51 ) ;
#156 = AXIS2_PLACEMENT_3D ( 'NONE', #259, #202, #67 ) ;
#157 = PLANE ( 'NONE',  #30 ) ;
#158 = ORIENTED_EDGE ( 'NONE', *, *, #180, .T. ) ;
#159 = CARTESIAN_POINT ( 'NONE',  ( 3.725215114696118618E-14, -4.616853245107914868E-15, 10.66944014064365653 ) ) ;
#160 = ORIENTED_EDGE ( 'NONE', *, *, #192, .T. ) ;
#161 = AXIS2_PLACEMENT_3D ( 'NONE', #243, #99, #173 ) ;
#162 = DIRECTION ( 'NONE',  ( -3.491481338843133355E-15, 4.327174794786742882E-16, -1.000000000000000000 ) ) ;
#163 = PRODUCT_RELATED_PRODUCT_CATEGORY ( 'detail', '', ( #101 ) ) ;
#164 = CARTESIAN_POINT ( 'NONE',  ( 1.256933281983528008E-14, -0.2750000000000022427, 3.600000000000000089 ) ) ;
#165 = LOCAL_TIME ( 14, 57, 21.00000000000000000, #247 ) ;
#166 = CARTESIAN_POINT ( 'NONE',  ( 1.431507348925684360E-14, 0.2749999999999995226, 4.099999999999999645 ) ) ;
#167 = FACE_OUTER_BOUND ( 'NONE', #148, .T. ) ;
#168 = DIRECTION ( 'NONE',  ( -3.491481338843133355E-15, 4.327174794786742882E-16, -1.000000000000000000 ) ) ;
#169 = APPROVAL_STATUS ( 'not_yet_approved' ) ;
#170 = ADVANCED_FACE ( 'NONE', ( #28 ), #261, .T. ) ;
#171 = CC_DESIGN_APPROVAL ( #139, ( #48 ) ) ;
#172 = COORDINATED_UNIVERSAL_TIME_OFFSET ( 1, 0, .AHEAD. ) ;
#173 = DIRECTION ( 'NONE',  ( 0.0000000000000000000, -1.000000000000000000, 0.0000000000000000000 ) ) ;
#174 = PERSON_AND_ORGANIZATION_ROLE ( 'creator' ) ;
#175 = AXIS2_PLACEMENT_3D ( 'NONE', #62, #168, #191 ) ;
#176 = CC_DESIGN_PERSON_AND_ORGANIZATION_ASSIGNMENT ( #7, #153, ( #127 ) ) ;
#177 = EDGE_LOOP ( 'NONE', ( #112 ) ) ;
#178 = AXIS2_PLACEMENT_3D ( 'NONE', #189, #4, #80 ) ;
#179 = ORIENTED_EDGE ( 'NONE', *, *, #180, .F. ) ;
#180 = EDGE_CURVE ( 'NONE', #262, #262, #21, .T. ) ;
#181 = DIRECTION ( 'NONE',  ( -5.135813185032677695E-31, -1.000000000000000000, -1.445602896647352968E-16 ) ) ;
#182 = EDGE_LOOP ( 'NONE', ( #49 ) ) ;
#183 = FACE_OUTER_BOUND ( 'NONE', #182, .T. ) ;
#184 = DIRECTION ( 'NONE',  ( 3.491481338843133355E-15, -1.224646799147352714E-16, 1.000000000000000000 ) ) ;
#185 = APPROVAL ( #190, 'UNSPECIFIED' ) ;
#186 = CARTESIAN_POINT ( 'NONE',  ( 1.256933281983528008E-14, -0.2750000000000022427, 3.600000000000000089 ) ) ;
#187 = CONICAL_SURFACE ( 'NONE', #219, 1.499999999999985789, 1.221730476396026610 ) ;
#188 = DIRECTION ( 'NONE',  ( 0.0000000000000000000, 1.000000000000000000, 0.0000000000000000000 ) ) ;
#189 = CARTESIAN_POINT ( 'NONE',  ( 1.256933281983528008E-14, -1.557782926123227398E-15, 3.600000000000000089 ) ) ;
#190 = APPROVAL_STATUS ( 'not_yet_approved' ) ;
#191 = DIRECTION ( 'NONE',  ( 0.0000000000000000000, 1.000000000000000000, 0.0000000000000000000 ) ) ;
#192 = EDGE_CURVE ( 'NONE', #142, #142, #71, .T. ) ;
#193 = ORIENTED_EDGE ( 'NONE', *, *, #36, .F. ) ;
#194 = APPROVAL_STATUS ( 'not_yet_approved' ) ;
#195 = CYLINDRICAL_SURFACE ( 'NONE', #260, 0.2750000000000006883 ) ;
#196 = TOROIDAL_SURFACE ( 'NONE', #155, 1.275000000000001465, 1.000000000000000000 ) ;
#197 = CARTESIAN_POINT ( 'NONE',  ( 1.906192921252219839E-15, -6.686024735685275344E-17, 0.5459553513993053997 ) ) ;
#198 = CC_DESIGN_DATE_AND_TIME_ASSIGNMENT ( #9, #126, ( #82 ) ) ;
#199 = LOCAL_TIME ( 14, 57, 21.00000000000000000, #26 ) ;
#200 = EDGE_LOOP ( 'NONE', ( #256 ) ) ;
#201 = DESIGN_CONTEXT ( 'detailed design', #1, 'design' ) ;
#202 = DIRECTION ( 'NONE',  ( -3.491481338843133355E-15, 1.224646799147352714E-16, -1.000000000000000000 ) ) ;
#203 = EDGE_LOOP ( 'NONE', ( #232 ) ) ;
#204 = FACE_OUTER_BOUND ( 'NONE', #68, .T. ) ;
#205 = APPROVAL_PERSON_ORGANIZATION ( #22, #185, #5 ) ;
#206 = CC_DESIGN_APPROVAL ( #72, ( #82 ) ) ;
#207 = DATE_AND_TIME ( #20, #25 ) ;
#208 = PERSON_AND_ORGANIZATION ( #212, #39 ) ;
#209 = CC_DESIGN_PERSON_AND_ORGANIZATION_ASSIGNMENT ( #46, #151, ( #82 ) ) ;
#210 = COORDINATED_UNIVERSAL_TIME_OFFSET ( 1, 0, .AHEAD. ) ;
#211 = DIRECTION ( 'NONE',  ( -3.491481338843133355E-15, 1.224646799147352714E-16, -1.000000000000000000 ) ) ;
#212 = PERSON ( 'UNSPECIFIED', 'UNSPECIFIED', 'UNSPECIFIED', ('UNSPECIFIED'), ('UNSPECIFIED'), ('UNSPECIFIED') ) ;
#213 = ADVANCED_FACE ( 'NONE', ( #183, #204 ), #234, .T. ) ;
#214 = PERSON_AND_ORGANIZATION ( #212, #39 ) ;
#215 = CALENDAR_DATE ( 2021, 13, 10 ) ;
#216 = EDGE_LOOP ( 'NONE', ( #238 ) ) ;
#217 = ORIENTED_EDGE ( 'NONE', *, *, #192, .F. ) ;
#218 = FACE_OUTER_BOUND ( 'NONE', #32, .T. ) ;
#219 = AXIS2_PLACEMENT_3D ( 'NONE', #197, #35, #181 ) ;
#220 = CC_DESIGN_SECURITY_CLASSIFICATION ( #82, ( #127 ) ) ;
#221 = ORIENTED_EDGE ( 'NONE', *, *, #23, .F. ) ;
#222 = CYLINDRICAL_SURFACE ( 'NONE', #53, 0.2750000000000006883 ) ;
#223 = ADVANCED_FACE ( 'NONE', ( #235 ), #93, .F. ) ;
#224 = DIRECTION ( 'NONE',  ( 0.0000000000000000000, -1.000000000000000000, 0.0000000000000000000 ) ) ;
#225 = FACE_OUTER_BOUND ( 'NONE', #200, .T. ) ;
#226 = AXIS2_PLACEMENT_3D ( 'NONE', #116, #113, #37 ) ;
#227 = CARTESIAN_POINT ( 'NONE',  ( 3.494687022295779135E-16, -0.2750000000000006883, 0.1000918144232071927 ) ) ;
#228 = CARTESIAN_POINT ( 'NONE',  ( 1.521873535536949782E-14, 0.3090741737109313769, 4.358819045102520384 ) ) ;
#229 = ADVANCED_FACE ( 'NONE', ( #111, #14 ), #196, .F. ) ;
#230 = CLOSED_SHELL ( 'NONE', ( #213, #154, #115, #77, #128, #229, #223 ) ) ;
#231 = CALENDAR_DATE ( 2021, 13, 10 ) ;
#232 = ORIENTED_EDGE ( 'NONE', *, *, #19, .F. ) ;
#233 = CONICAL_SURFACE ( 'NONE', #106, 1.999999999999994449, 0.2617993877991502960 ) ;
#234 = CYLINDRICAL_SURFACE ( 'NONE', #156, 1.499999999999988232 ) ;
#235 = FACE_OUTER_BOUND ( 'NONE', #135, .T. ) ;
#236 = CARTESIAN_POINT ( 'NONE',  ( 1.326762908760390675E-13, 8.248678804640074524E-33, 38.00000000000000711 ) ) ;
#237 =( GEOMETRIC_REPRESENTATION_CONTEXT ( 3 ) GLOBAL_UNCERTAINTY_ASSIGNED_CONTEXT ( ( #136 ) ) GLOBAL_UNIT_ASSIGNED_CONTEXT ( ( #61, #240, #3 ) ) REPRESENTATION_CONTEXT ( 'NONE', 'WORKASPACE' ) );
#238 = ORIENTED_EDGE ( 'NONE', *, *, #249, .T. ) ;
#239 = DIRECTION ( 'NONE',  ( 1.510825004591027679E-30, 1.000000000000000000, 4.327174794786742389E-16 ) ) ;
#240 =( NAMED_UNIT ( * ) PLANE_ANGLE_UNIT ( ) SI_UNIT ( $, .RADIAN. ) );
#241 = CC_DESIGN_PERSON_AND_ORGANIZATION_ASSIGNMENT ( #208, #122, ( #101 ) ) ;
#242 = DIRECTION ( 'NONE',  ( 0.0000000000000000000, 0.0000000000000000000, 1.000000000000000000 ) ) ;
#243 = CARTESIAN_POINT ( 'NONE',  ( 3.073695827184054219E-14, -3.809391435739130224E-15, 8.803414736859203060 ) ) ;
#244 = APPROVAL_ROLE ( '' ) ;
#245 = FACE_OUTER_BOUND ( 'NONE', #216, .T. ) ;
#246 = AXIS2_PLACEMENT_3D ( 'NONE', #52, #184, #108 ) ;
#247 = COORDINATED_UNIVERSAL_TIME_OFFSET ( 1, 0, .AHEAD. ) ;
#248 = APPROVAL_ROLE ( '' ) ;
#249 = EDGE_CURVE ( 'NONE', #143, #143, #63, .T. ) ;
#250 = SHAPE_DEFINITION_REPRESENTATION ( #58, #109 ) ;
#251 = EDGE_LOOP ( 'NONE', ( #193 ) ) ;
#252 = EDGE_LOOP ( 'NONE', ( #179 ) ) ;
#253 = FACE_BOUND ( 'NONE', #129, .T. ) ;
#254 = APPROVAL_PERSON_ORGANIZATION ( #104, #72, #248 ) ;
#255 = DIRECTION ( 'NONE',  ( -3.491481338843133355E-15, 1.224646799147352714E-16, -1.000000000000000000 ) ) ;
#256 = ORIENTED_EDGE ( 'NONE', *, *, #31, .F. ) ;
#257 = MANIFOLD_SOLID_BREP ( 'Corps-Déplacer/Copier1[1]', #230 ) ;
#258 = DIRECTION ( 'NONE',  ( 3.491481338843133355E-15, -1.224646799147352714E-16, 1.000000000000000000 ) ) ;
#259 = CARTESIAN_POINT ( 'NONE',  ( 0.0000000000000000000, 0.0000000000000000000, 0.0000000000000000000 ) ) ;
#260 = AXIS2_PLACEMENT_3D ( 'NONE', #152, #64, #34 ) ;
#261 = PLANE ( 'NONE',  #94 ) ;
#262 = VERTEX_POINT ( 'NONE', #44 ) ;
#263 = DATE_AND_TIME ( #18, #165 ) ;
ENDSEC;
END-ISO-10303-21;
