ISO-10303-21;
HEADER;
FILE_DESCRIPTION (( 'STEP AP203' ),
    '1' );
FILE_NAME ('960468.step',
    '2021-10-13T12:57:21',
    ( '' ),
    ( '' ),
    'SwSTEP 2.0',
    'SolidWorks 2019',
    '' );
FILE_SCHEMA (( 'CONFIG_CONTROL_DESIGN' ));
ENDSEC;

DATA;
#1 = ORIENTED_EDGE ( 'NONE', *, *, #203, .T. ) ;
#2 = PERSON_AND_ORGANIZATION_ROLE ( 'design_owner' ) ;
#3 = FACE_OUTER_BOUND ( 'NONE', #164, .T. ) ;
#4 = MECHANICAL_CONTEXT ( 'NONE', #145, 'mechanical' ) ;
#5 = DATE_TIME_ROLE ( 'classification_date' ) ;
#6 = CALENDAR_DATE ( 2021, 13, 10 ) ;
#7 = DIRECTION ( 'NONE',  ( -3.491481338843133355E-15, 4.327174794786742882E-16, -1.000000000000000000 ) ) ;
#8 = FACE_OUTER_BOUND ( 'NONE', #27, .T. ) ;
#9 = EDGE_LOOP ( 'NONE', ( #47 ) ) ;
#10 = CARTESIAN_POINT ( 'NONE',  ( 3.176988202087073330E-16, -1.114337455947559757E-17, 0.09099255856655202868 ) ) ;
#11 = EDGE_CURVE ( 'NONE', #106, #106, #66, .T. ) ;
#12 = CC_DESIGN_APPROVAL ( #114, ( #133 ) ) ;
#13 = DATE_AND_TIME ( #41, #220 ) ;
#14 = DIRECTION ( 'NONE',  ( 3.491481338843133355E-15, -1.224646799147352714E-16, 1.000000000000000000 ) ) ;
#15 = CARTESIAN_POINT ( 'NONE',  ( 3.001527351394368140E-14, -3.719949282363974901E-15, 8.596716007048440744 ) ) ;
#16 = APPROVAL_DATE_TIME ( #19, #114 ) ;
#17 = DIRECTION ( 'NONE',  ( 3.491481338843133355E-15, -1.224646799147352714E-16, 1.000000000000000000 ) ) ;
#18 = CARTESIAN_POINT ( 'NONE',  ( 1.312796983405018394E-13, 1.499999999999985789, 37.60000000000000853 ) ) ;
#19 = DATE_AND_TIME ( #240, #117 ) ;
#20 = ADVANCED_FACE ( 'NONE', ( #62, #68 ), #200, .T. ) ;
#21 = DIRECTION ( 'NONE',  ( 1.000000000000000000, 0.0000000000000000000, 0.0000000000000000000 ) ) ;
#22 = APPLICATION_PROTOCOL_DEFINITION ( 'international standard', 'config_control_design', 1994, #145 ) ;
#23 = APPROVAL_DATE_TIME ( #190, #110 ) ;
#24 = DIRECTION ( 'NONE',  ( -3.491481338843133355E-15, 1.224646799147352714E-16, -1.000000000000000000 ) ) ;
#25 = EDGE_CURVE ( 'NONE', #149, #149, #204, .T. ) ;
#26 = ORIENTED_EDGE ( 'NONE', *, *, #134, .T. ) ;
#27 = EDGE_LOOP ( 'NONE', ( #228 ) ) ;
#28 = EDGE_LOOP ( 'NONE', ( #197 ) ) ;
#29 = CC_DESIGN_DATE_AND_TIME_ASSIGNMENT ( #13, #119, ( #72 ) ) ;
#30 = DIRECTION ( 'NONE',  ( -3.491481338843133355E-15, 4.327174794786742882E-16, -1.000000000000000000 ) ) ;
#31 = VERTEX_POINT ( 'NONE', #259 ) ;
#32 = PLANE ( 'NONE',  #49 ) ;
#33 = CARTESIAN_POINT ( 'NONE',  ( 1.152188841818233061E-14, -0.2500000000000019984, 3.299999999999997158 ) ) ;
#34 = CONICAL_SURFACE ( 'NONE', #43, 1.099999999999990985, 0.7853981633974504994 ) ;
#35 = EDGE_CURVE ( 'NONE', #150, #150, #56, .T. ) ;
#36 = DATE_AND_TIME ( #6, #198 ) ;
#37 = DIRECTION ( 'NONE',  ( 1.510825004591027855E-30, 1.000000000000000000, 4.327174794786742882E-16 ) ) ;
#38 = ORIENTED_EDGE ( 'NONE', *, *, #203, .F. ) ;
#39 = PERSON_AND_ORGANIZATION ( #151, #55 ) ;
#40 = DIRECTION ( 'NONE',  ( -3.491481338843133355E-15, 1.224646799147352714E-16, -1.000000000000000000 ) ) ;
#41 = CALENDAR_DATE ( 2021, 13, 10 ) ;
#42 = DIRECTION ( 'NONE',  ( -3.491481338843133355E-15, 4.327174794786742882E-16, -1.000000000000000000 ) ) ;
#43 = AXIS2_PLACEMENT_3D ( 'NONE', #101, #118, #253 ) ;
#44 = ADVANCED_FACE ( 'NONE', ( #99, #144 ), #34, .T. ) ;
#45 = FACE_OUTER_BOUND ( 'NONE', #28, .T. ) ;
#46 = APPLICATION_PROTOCOL_DEFINITION ( 'international standard', 'config_control_design', 1994, #153 ) ;
#47 = ORIENTED_EDGE ( 'NONE', *, *, #25, .T. ) ;
#48 = DIRECTION ( 'NONE',  ( -3.491481338843133355E-15, 4.327174794786742882E-16, -1.000000000000000000 ) ) ;
#49 = AXIS2_PLACEMENT_3D ( 'NONE', #191, #17, #108 ) ;
#50 =( NAMED_UNIT ( * ) SI_UNIT ( $, .STERADIAN. ) SOLID_ANGLE_UNIT ( ) );
#51 = FACE_OUTER_BOUND ( 'NONE', #206, .T. ) ;
#52 = ADVANCED_BREP_SHAPE_REPRESENTATION ( '960468', ( #232, #236, #182 ), #192 ) ;
#53 = UNCERTAINTY_MEASURE_WITH_UNIT (LENGTH_MEASURE( 1.000000000000000082E-05 ), #241, 'distance_accuracy_value', 'NONE');
#54 = ADVANCED_FACE ( 'NONE', ( #8 ), #186, .T. ) ;
#55 = ORGANIZATION ( 'UNSPECIFIED', 'UNSPECIFIED', '' ) ;
#56 = CIRCLE ( 'NONE', #142, 0.2500000000000006106 ) ;
#57 = AXIS2_PLACEMENT_3D ( 'NONE', #15, #263, #261 ) ;
#58 = APPROVAL_STATUS ( 'not_yet_approved' ) ;
#59 = ORIENTED_EDGE ( 'NONE', *, *, #243, .F. ) ;
#60 = AXIS2_PLACEMENT_3D ( 'NONE', #61, #40, #120 ) ;
#61 = CARTESIAN_POINT ( 'NONE',  ( 1.152188841818233061E-14, -1.427967682279624047E-15, 3.299999999999997158 ) ) ;
#62 = FACE_OUTER_BOUND ( 'NONE', #187, .T. ) ;
#63 = ADVANCED_FACE ( 'NONE', ( #159 ), #163, .F. ) ;
#64 = EDGE_LOOP ( 'NONE', ( #26 ) ) ;
#65 = ORIENTED_EDGE ( 'NONE', *, *, #243, .T. ) ;
#66 = CIRCLE ( 'NONE', #100, 1.499999999999990230 ) ;
#67 = CIRCLE ( 'NONE', #255, 1.099999999999990985 ) ;
#68 = FACE_OUTER_BOUND ( 'NONE', #181, .T. ) ;
#69 = VERTEX_POINT ( 'NONE', #239 ) ;
#70 = DIRECTION ( 'NONE',  ( -3.491481338843133355E-15, 4.327174794786742882E-16, -1.000000000000000000 ) ) ;
#71 = FACE_BOUND ( 'NONE', #231, .T. ) ;
#72 = PRODUCT_DEFINITION ( 'UNKNOWN', '', #235, #214 ) ;
#73 = VERTEX_POINT ( 'NONE', #146 ) ;
#74 = DIRECTION ( 'NONE',  ( 0.0000000000000000000, 0.0000000000000000000, 1.000000000000000000 ) ) ;
#75 = CONICAL_SURFACE ( 'NONE', #216, 1.499999999999985789, 1.221730476396026610 ) ;
#76 = ORIENTED_EDGE ( 'NONE', *, *, #11, .T. ) ;
#77 = PERSON_AND_ORGANIZATION ( #151, #55 ) ;
#78 = DIRECTION ( 'NONE',  ( 4.275831445896956855E-31, 1.000000000000000000, 1.224646799147352714E-16 ) ) ;
#79 = COORDINATED_UNIVERSAL_TIME_OFFSET ( 1, 0, .AHEAD. ) ;
#80 = FACE_OUTER_BOUND ( 'NONE', #121, .T. ) ;
#81 = DIRECTION ( 'NONE',  ( 0.0000000000000000000, 1.000000000000000000, 0.0000000000000000000 ) ) ;
#82 = EDGE_LOOP ( 'NONE', ( #104 ) ) ;
#83 = SECURITY_CLASSIFICATION_LEVEL ( 'unclassified' ) ;
#84 = DIRECTION ( 'NONE',  ( 0.0000000000000000000, 1.000000000000000000, 0.0000000000000000000 ) ) ;
#85 = CIRCLE ( 'NONE', #107, 0.2500000000000009992 ) ;
#86 = DIRECTION ( 'NONE',  ( 0.0000000000000000000, -1.000000000000000000, 0.0000000000000000000 ) ) ;
#87 = CARTESIAN_POINT ( 'NONE',  ( 3.176988202087072344E-16, -0.2500000000000006106, 0.09099255856655200092 ) ) ;
#88 = DIRECTION ( 'NONE',  ( 0.0000000000000000000, 1.000000000000000000, 0.0000000000000000000 ) ) ;
#89 = FACE_OUTER_BOUND ( 'NONE', #98, .T. ) ;
#90 = PRODUCT_DEFINITION_SHAPE ( 'NONE', 'NONE',  #72 ) ;
#91 = ADVANCED_FACE ( 'NONE', ( #3, #80 ), #137, .T. ) ;
#92 = VERTEX_POINT ( 'NONE', #213 ) ;
#93 = APPROVAL_PERSON_ORGANIZATION ( #226, #110, #209 ) ;
#94 = CC_DESIGN_APPROVAL ( #245, ( #235 ) ) ;
#95 = EDGE_CURVE ( 'NONE', #260, #260, #143, .T. ) ;
#96 = DIRECTION ( 'NONE',  ( -3.491481338843133355E-15, 1.224646799147352714E-16, -1.000000000000000000 ) ) ;
#97 = PERSON_AND_ORGANIZATION ( #151, #55 ) ;
#98 = EDGE_LOOP ( 'NONE', ( #254 ) ) ;
#99 = FACE_OUTER_BOUND ( 'NONE', #82, .T. ) ;
#100 = AXIS2_PLACEMENT_3D ( 'NONE', #126, #24, #84 ) ;
#101 = CARTESIAN_POINT ( 'NONE',  ( 1.326762908760390675E-13, -4.653657836759941152E-15, 38.00000000000000711 ) ) ;
#102 = ORIENTED_EDGE ( 'NONE', *, *, #134, .F. ) ;
#103 = PERSON_AND_ORGANIZATION_ROLE ( 'design_supplier' ) ;
#104 = ORIENTED_EDGE ( 'NONE', *, *, #11, .F. ) ;
#105 = CALENDAR_DATE ( 2021, 13, 10 ) ;
#106 = VERTEX_POINT ( 'NONE', #18 ) ;
#107 = AXIS2_PLACEMENT_3D ( 'NONE', #237, #70, #130 ) ;
#108 = DIRECTION ( 'NONE',  ( -4.275831445896956855E-31, -1.000000000000000000, -1.224646799147352714E-16 ) ) ;
#109 = FACE_OUTER_BOUND ( 'NONE', #223, .T. ) ;
#110 = APPROVAL ( #224, 'UNSPECIFIED' ) ;
#111 = CLOSED_SHELL ( 'NONE', ( #199, #115, #54 ) ) ;
#112 = SHAPE_DEFINITION_REPRESENTATION ( #90, #52 ) ;
#113 = AXIS2_PLACEMENT_3D ( 'NONE', #222, #230, #78 ) ;
#114 = APPROVAL ( #158, 'UNSPECIFIED' ) ;
#115 = ADVANCED_FACE ( 'NONE', ( #202, #45 ), #227, .T. ) ;
#116 = ORIENTED_EDGE ( 'NONE', *, *, #95, .F. ) ;
#117 = LOCAL_TIME ( 14, 57, 21.00000000000000000, #256 ) ;
#118 = DIRECTION ( 'NONE',  ( -3.491481338843133355E-15, 1.224646799147352714E-16, -1.000000000000000000 ) ) ;
#119 = DATE_TIME_ROLE ( 'creation_date' ) ;
#120 = DIRECTION ( 'NONE',  ( 0.0000000000000000000, -1.000000000000000000, 0.0000000000000000000 ) ) ;
#121 = EDGE_LOOP ( 'NONE', ( #76 ) ) ;
#122 = APPROVAL_DATE_TIME ( #36, #245 ) ;
#123 = EDGE_LOOP ( 'NONE', ( #257 ) ) ;
#124 = CC_DESIGN_SECURITY_CLASSIFICATION ( #133, ( #235 ) ) ;
#125 = PERSON_AND_ORGANIZATION_ROLE ( 'creator' ) ;
#126 = CARTESIAN_POINT ( 'NONE',  ( 1.312796983405018394E-13, -4.604671964794046935E-15, 37.60000000000000853 ) ) ;
#127 = PERSON_AND_ORGANIZATION ( #151, #55 ) ;
#128 = CC_DESIGN_PERSON_AND_ORGANIZATION_ASSIGNMENT ( #127, #221, ( #133 ) ) ;
#129 = CARTESIAN_POINT ( 'NONE',  ( 1.152188841818233061E-14, -1.427967682279624047E-15, 3.299999999999997158 ) ) ;
#130 = DIRECTION ( 'NONE',  ( 0.0000000000000000000, 1.000000000000000000, 0.0000000000000000000 ) ) ;
#131 = CARTESIAN_POINT ( 'NONE',  ( 0.0000000000000000000, 0.0000000000000000000, 0.0000000000000000000 ) ) ;
#132 = CARTESIAN_POINT ( 'NONE',  ( 1.326762908760389728E-14, -1.734723475976807094E-15, 3.799999999999997602 ) ) ;
#133 = SECURITY_CLASSIFICATION ( '', '', #83 ) ;
#134 = EDGE_CURVE ( 'NONE', #69, #69, #166, .T. ) ;
#135 = APPROVAL_PERSON_ORGANIZATION ( #250, #245, #201 ) ;
#136 = AXIS2_PLACEMENT_3D ( 'NONE', #184, #7, #161 ) ;
#137 = CYLINDRICAL_SURFACE ( 'NONE', #113, 1.499999999999988232 ) ;
#138 = DIRECTION ( 'NONE',  ( -4.275831445896956855E-31, -1.000000000000000000, -1.224646799147352714E-16 ) ) ;
#139 = DIRECTION ( 'NONE',  ( 3.491481338843133355E-15, -1.224646799147352714E-16, 1.000000000000000000 ) ) ;
#140 = COORDINATED_UNIVERSAL_TIME_OFFSET ( 1, 0, .AHEAD. ) ;
#141 = DIRECTION ( 'NONE',  ( -3.851859888774462510E-31, -1.000000000000000000, -1.084202172485501846E-16 ) ) ;
#142 = AXIS2_PLACEMENT_3D ( 'NONE', #10, #154, #141 ) ;
#143 = CIRCLE ( 'NONE', #60, 0.2500000000000006106 ) ;
#144 = FACE_BOUND ( 'NONE', #176, .T. ) ;
#145 = APPLICATION_CONTEXT ( 'configuration controlled 3d designs of mechanical parts and assemblies' ) ;
#146 = CARTESIAN_POINT ( 'NONE',  ( 3.001527351394368140E-14, -1.499999999999992006, 8.596716007048440744 ) ) ;
#147 = CIRCLE ( 'NONE', #57, 1.499999999999988232 ) ;
#148 = FACE_OUTER_BOUND ( 'NONE', #225, .T. ) ;
#149 = VERTEX_POINT ( 'NONE', #196 ) ;
#150 = VERTEX_POINT ( 'NONE', #87 ) ;
#151 = PERSON ( 'UNSPECIFIED', 'UNSPECIFIED', 'UNSPECIFIED', ('UNSPECIFIED'), ('UNSPECIFIED'), ('UNSPECIFIED') ) ;
#152 = CC_DESIGN_PERSON_AND_ORGANIZATION_ASSIGNMENT ( #178, #2, ( #175 ) ) ;
#153 = APPLICATION_CONTEXT ( 'configuration controlled 3d designs of mechanical parts and assemblies' ) ;
#154 = DIRECTION ( 'NONE',  ( -3.491481338843133355E-15, 1.224646799147352714E-16, -1.000000000000000000 ) ) ;
#155 = ORIENTED_EDGE ( 'NONE', *, *, #35, .T. ) ;
#156 = ADVANCED_FACE ( 'NONE', ( #51, #193 ), #177, .F. ) ;
#157 = CC_DESIGN_APPROVAL ( #110, ( #72 ) ) ;
#158 = APPROVAL_STATUS ( 'not_yet_approved' ) ;
#159 = FACE_OUTER_BOUND ( 'NONE', #123, .T. ) ;
#160 = CC_DESIGN_DATE_AND_TIME_ASSIGNMENT ( #188, #5, ( #133 ) ) ;
#161 = DIRECTION ( 'NONE',  ( 1.510825004591027855E-30, 1.000000000000000000, 4.327174794786742882E-16 ) ) ;
#162 = COORDINATED_UNIVERSAL_TIME_OFFSET ( 1, 0, .AHEAD. ) ;
#163 = PLANE ( 'NONE',  #174 ) ;
#164 = EDGE_LOOP ( 'NONE', ( #65 ) ) ;
#165 = APPROVAL_ROLE ( '' ) ;
#166 = CIRCLE ( 'NONE', #218, 0.2840741737109322984 ) ;
#167 = CARTESIAN_POINT ( 'NONE',  ( 1.906192921252219839E-15, -6.686024735685275344E-17, 0.5459553513993053997 ) ) ;
#168 = CARTESIAN_POINT ( 'NONE',  ( 3.653046638906431908E-14, -4.527411091732758756E-15, 10.46274141083289244 ) ) ;
#169 = AXIS2_PLACEMENT_3D ( 'NONE', #208, #30, #37 ) ;
#170 = AXIS2_PLACEMENT_3D ( 'NONE', #249, #139, #138 ) ;
#171 = DIRECTION ( 'NONE',  ( 1.534429710727258394E-30, 1.000000000000000000, 4.327174794786742882E-16 ) ) ;
#172 = CC_DESIGN_PERSON_AND_ORGANIZATION_ASSIGNMENT ( #207, #103, ( #235 ) ) ;
#173 = AXIS2_PLACEMENT_3D ( 'NONE', #129, #246, #189 ) ;
#174 = AXIS2_PLACEMENT_3D ( 'NONE', #210, #96, #179 ) ;
#175 = PRODUCT ( '960468', '960468', '', ( #4 ) ) ;
#176 = EDGE_LOOP ( 'NONE', ( #252 ) ) ;
#177 = TOROIDAL_SURFACE ( 'NONE', #195, 1.250000000000001110, 1.000000000000001776 ) ;
#178 = PERSON_AND_ORGANIZATION ( #151, #55 ) ;
#179 = DIRECTION ( 'NONE',  ( 4.275831445896956855E-31, 1.000000000000000000, 1.224646799147352714E-16 ) ) ;
#180 = CALENDAR_DATE ( 2021, 13, 10 ) ;
#181 = EDGE_LOOP ( 'NONE', ( #116 ) ) ;
#182 = AXIS2_PLACEMENT_3D ( 'NONE', #131, #74, #21 ) ;
#183 = PERSON_AND_ORGANIZATION_ROLE ( 'creator' ) ;
#184 = CARTESIAN_POINT ( 'NONE',  ( 0.0000000000000000000, 0.0000000000000000000, 0.0000000000000000000 ) ) ;
#185 = EDGE_CURVE ( 'NONE', #92, #92, #67, .T. ) ;
#186 = PLANE ( 'NONE',  #170 ) ;
#187 = EDGE_LOOP ( 'NONE', ( #1 ) ) ;
#188 = DATE_AND_TIME ( #180, #229 ) ;
#189 = DIRECTION ( 'NONE',  ( 0.0000000000000000000, -1.000000000000000000, 0.0000000000000000000 ) ) ;
#190 = DATE_AND_TIME ( #105, #247 ) ;
#191 = CARTESIAN_POINT ( 'NONE',  ( 1.152188841818233061E-14, 1.124819836996381300E-32, 3.299999999999997158 ) ) ;
#192 =( GEOMETRIC_REPRESENTATION_CONTEXT ( 3 ) GLOBAL_UNCERTAINTY_ASSIGNED_CONTEXT ( ( #53 ) ) GLOBAL_UNIT_ASSIGNED_CONTEXT ( ( #241, #234, #50 ) ) REPRESENTATION_CONTEXT ( 'NONE', 'WORKASPACE' ) );
#193 = FACE_OUTER_BOUND ( 'NONE', #64, .T. ) ;
#194 = DIRECTION ( 'NONE',  ( -3.491481338843133355E-15, 1.224646799147352714E-16, -1.000000000000000000 ) ) ;
#195 = AXIS2_PLACEMENT_3D ( 'NONE', #132, #48, #171 ) ;
#196 = CARTESIAN_POINT ( 'NONE',  ( 1.152188841818233061E-14, -0.2500000000000019984, 3.299999999999997158 ) ) ;
#197 = ORIENTED_EDGE ( 'NONE', *, *, #35, .F. ) ;
#198 = LOCAL_TIME ( 14, 57, 21.00000000000000000, #140 ) ;
#199 = ADVANCED_FACE ( 'NONE', ( #148 ), #75, .T. ) ;
#200 = CYLINDRICAL_SURFACE ( 'NONE', #169, 0.2500000000000006106 ) ;
#201 = APPROVAL_ROLE ( '' ) ;
#202 = FACE_OUTER_BOUND ( 'NONE', #9, .T. ) ;
#203 = EDGE_CURVE ( 'NONE', #31, #31, #85, .T. ) ;
#204 = CIRCLE ( 'NONE', #173, 0.2500000000000006106 ) ;
#205 = APPROVAL_PERSON_ORGANIZATION ( #77, #114, #165 ) ;
#206 = EDGE_LOOP ( 'NONE', ( #38 ) ) ;
#207 = PERSON_AND_ORGANIZATION ( #151, #55 ) ;
#208 = CARTESIAN_POINT ( 'NONE',  ( 0.0000000000000000000, 0.0000000000000000000, 0.0000000000000000000 ) ) ;
#209 = APPROVAL_ROLE ( '' ) ;
#210 = CARTESIAN_POINT ( 'NONE',  ( 1.326762908760390675E-13, 8.248678804640074524E-33, 38.00000000000000711 ) ) ;
#211 = DIRECTION ( 'NONE',  ( 3.491481338843133355E-15, -4.327174794786742882E-16, 1.000000000000000000 ) ) ;
#212 = AXIS2_PLACEMENT_3D ( 'NONE', #168, #211, #86 ) ;
#213 = CARTESIAN_POINT ( 'NONE',  ( 1.326762908760390675E-13, 1.099999999999986322, 38.00000000000000711 ) ) ;
#214 = DESIGN_CONTEXT ( 'detailed design', #153, 'design' ) ;
#215 = CARTESIAN_POINT ( 'NONE',  ( 1.326762908760390675E-13, -4.653657836759941152E-15, 38.00000000000000711 ) ) ;
#216 = AXIS2_PLACEMENT_3D ( 'NONE', #167, #14, #262 ) ;
#217 = CLOSED_SHELL ( 'NONE', ( #91, #44, #63, #20, #258, #156, #233 ) ) ;
#218 = AXIS2_PLACEMENT_3D ( 'NONE', #251, #42, #81 ) ;
#219 = CC_DESIGN_PERSON_AND_ORGANIZATION_ASSIGNMENT ( #97, #125, ( #235 ) ) ;
#220 = LOCAL_TIME ( 14, 57, 21.00000000000000000, #79 ) ;
#221 = PERSON_AND_ORGANIZATION_ROLE ( 'classification_officer' ) ;
#222 = CARTESIAN_POINT ( 'NONE',  ( 0.0000000000000000000, 0.0000000000000000000, 0.0000000000000000000 ) ) ;
#223 = EDGE_LOOP ( 'NONE', ( #59 ) ) ;
#224 = APPROVAL_STATUS ( 'not_yet_approved' ) ;
#225 = EDGE_LOOP ( 'NONE', ( #155 ) ) ;
#226 = PERSON_AND_ORGANIZATION ( #151, #55 ) ;
#227 = CYLINDRICAL_SURFACE ( 'NONE', #136, 0.2500000000000006106 ) ;
#228 = ORIENTED_EDGE ( 'NONE', *, *, #25, .F. ) ;
#229 = LOCAL_TIME ( 14, 57, 21.00000000000000000, #248 ) ;
#230 = DIRECTION ( 'NONE',  ( -3.491481338843133355E-15, 1.224646799147352714E-16, -1.000000000000000000 ) ) ;
#231 = EDGE_LOOP ( 'NONE', ( #102 ) ) ;
#232 = MANIFOLD_SOLID_BREP ( 'Corps-Déplacer/Copier1[1]', #217 ) ;
#233 = ADVANCED_FACE ( 'NONE', ( #89 ), #32, .F. ) ;
#234 =( NAMED_UNIT ( * ) PLANE_ANGLE_UNIT ( ) SI_UNIT ( $, .RADIAN. ) );
#235 = PRODUCT_DEFINITION_FORMATION_WITH_SPECIFIED_SOURCE ( 'ANY', '', #175, .NOT_KNOWN. ) ;
#236 = MANIFOLD_SOLID_BREP ( 'Corps-Déplacer/Copier1[2]', #111 ) ;
#237 = CARTESIAN_POINT ( 'NONE',  ( 1.326762908760389886E-14, -1.644326422018961388E-15, 3.799999999999998046 ) ) ;
#238 = CC_DESIGN_PERSON_AND_ORGANIZATION_ASSIGNMENT ( #39, #183, ( #72 ) ) ;
#239 = CARTESIAN_POINT ( 'NONE',  ( 1.417129095371657044E-14, 0.2840741737109305776, 4.058819045102524115 ) ) ;
#240 = CALENDAR_DATE ( 2021, 13, 10 ) ;
#241 =( LENGTH_UNIT ( ) NAMED_UNIT ( * ) SI_UNIT ( .MILLI., .METRE. ) );
#242 = CONICAL_SURFACE ( 'NONE', #212, 1.999999999999993117, 0.2617993877991499629 ) ;
#243 = EDGE_CURVE ( 'NONE', #73, #73, #147, .T. ) ;
#244 = PRODUCT_RELATED_PRODUCT_CATEGORY ( 'detail', '', ( #175 ) ) ;
#245 = APPROVAL ( #58, 'UNSPECIFIED' ) ;
#246 = DIRECTION ( 'NONE',  ( -3.491481338843133355E-15, 1.224646799147352714E-16, -1.000000000000000000 ) ) ;
#247 = LOCAL_TIME ( 14, 57, 21.00000000000000000, #162 ) ;
#248 = COORDINATED_UNIVERSAL_TIME_OFFSET ( 1, 0, .AHEAD. ) ;
#249 = CARTESIAN_POINT ( 'NONE',  ( 1.152188841818233061E-14, 1.124819836996381300E-32, 3.299999999999997158 ) ) ;
#250 = PERSON_AND_ORGANIZATION ( #151, #55 ) ;
#251 = CARTESIAN_POINT ( 'NONE',  ( 1.417129095371657044E-14, -1.756321946856803991E-15, 4.058819045102524115 ) ) ;
#252 = ORIENTED_EDGE ( 'NONE', *, *, #185, .T. ) ;
#253 = DIRECTION ( 'NONE',  ( 0.0000000000000000000, 1.000000000000000000, 0.0000000000000000000 ) ) ;
#254 = ORIENTED_EDGE ( 'NONE', *, *, #95, .T. ) ;
#255 = AXIS2_PLACEMENT_3D ( 'NONE', #215, #194, #88 ) ;
#256 = COORDINATED_UNIVERSAL_TIME_OFFSET ( 1, 0, .AHEAD. ) ;
#257 = ORIENTED_EDGE ( 'NONE', *, *, #185, .F. ) ;
#258 = ADVANCED_FACE ( 'NONE', ( #71, #109 ), #242, .T. ) ;
#259 = CARTESIAN_POINT ( 'NONE',  ( 1.326762908760389886E-14, 0.2499999999999993616, 3.799999999999998046 ) ) ;
#260 = VERTEX_POINT ( 'NONE', #33 ) ;
#261 = DIRECTION ( 'NONE',  ( 0.0000000000000000000, -1.000000000000000000, 0.0000000000000000000 ) ) ;
#262 = DIRECTION ( 'NONE',  ( -5.135813185032677695E-31, -1.000000000000000000, -1.445602896647352968E-16 ) ) ;
#263 = DIRECTION ( 'NONE',  ( 3.491481338843133355E-15, -4.327174794786742882E-16, 1.000000000000000000 ) ) ;
ENDSEC;
END-ISO-10303-21;
