ISO-10303-21;
HEADER;
FILE_DESCRIPTION (( 'STEP AP203' ),
    '1' );
FILE_NAME ('960467.step',
    '2023-09-27T08:29:56',
    ( '' ),
    ( '' ),
    'SwSTEP 2.0',
    'SolidWorks 2022',
    '' );
FILE_SCHEMA (( 'CONFIG_CONTROL_DESIGN' ));
ENDSEC;

DATA;
#1 = CARTESIAN_POINT ( 'NONE',  ( 2.836828587810024157E-15, 0.000000000000000000, 0.8124999999999937828 ) ) ;
#2 = ORIENTED_EDGE ( 'NONE', *, *, #276, .F. ) ;
#3 = CYLINDRICAL_SURFACE ( 'NONE', #364, 3.950000000000000178 ) ;
#4 = APPROVAL_PERSON_ORGANIZATION ( #336, #198, #207 ) ;
#5 = ADVANCED_FACE ( 'NONE', ( #158, #6 ), #175, .T. ) ;
#6 = FACE_OUTER_BOUND ( 'NONE', #211, .T. ) ;
#7 = CARTESIAN_POINT ( 'NONE',  ( 2.759215069796392417, 0.000000000000000000, -9.633747926048857214E-15 ) ) ;
#8 = CC_DESIGN_DATE_AND_TIME_ASSIGNMENT ( #268, #214, ( #187 ) ) ;
#9 = AXIS2_PLACEMENT_3D ( 'NONE', #388, #143, #266 ) ;
#10 = DIRECTION ( 'NONE',  ( 1.000000000000000000, 0.000000000000000000, -3.515600205708450080E-15 ) ) ;
#11 = TOROIDAL_SURFACE ( 'NONE', #67, 3.764999999999997460, 1.000000000000000222 ) ;
#12 = DIRECTION ( 'NONE',  ( 1.000000000000000000, 0.000000000000000000, -5.019091431397635726E-15 ) ) ;
#13 = DIRECTION ( 'NONE',  ( 3.491481338843133355E-15, -0.000000000000000000, 1.000000000000000000 ) ) ;
#14 = VERTEX_POINT ( 'NONE', #197 ) ;
#15 = CALENDAR_DATE ( 2023, 27, 9 ) ;
#16 = DIRECTION ( 'NONE',  ( 3.491481338843133355E-15, -0.000000000000000000, 1.000000000000000000 ) ) ;
#17 = EDGE_LOOP ( 'NONE', ( #84 ) ) ;
#18 = DATE_AND_TIME ( #245, #246 ) ;
#19 = CARTESIAN_POINT ( 'NONE',  ( 2.618611004132350648E-13, 3.199999999999995293, 75.00000000000001421 ) ) ;
#20 = AXIS2_PLACEMENT_3D ( 'NONE', #19, #325, #302 ) ;
#21 = VERTEX_POINT ( 'NONE', #204 ) ;
#22 = APPROVAL_DATE_TIME ( #241, #107 ) ;
#23 = CARTESIAN_POINT ( 'NONE',  ( 2.590679153421605076E-13, 0.000000000000000000, 74.20000000000000284 ) ) ;
#24 = SECURITY_CLASSIFICATION_LEVEL ( 'unclassified' ) ;
#25 = CYLINDRICAL_SURFACE ( 'NONE', #280, 3.083974596215556918 ) ;
#26 = APPLICATION_PROTOCOL_DEFINITION ( 'international standard', 'config_control_design', 1994, #78 ) ;
#27 = LOCAL_TIME ( 10, 29, 56.00000000000000000, #98 ) ;
#28 = EDGE_CURVE ( 'NONE', #135, #135, #139, .T. ) ;
#29 = CARTESIAN_POINT ( 'NONE',  ( 5.891874759297768604E-15, 0.000000000000000000, 1.687499999999994671 ) ) ;
#30 = ORIENTED_EDGE ( 'NONE', *, *, #45, .F. ) ;
#31 = EDGE_CURVE ( 'NONE', #357, #357, #392, .T. ) ;
#32 = EDGE_LOOP ( 'NONE', ( #251 ) ) ;
#33 = EDGE_LOOP ( 'NONE', ( #315 ) ) ;
#34 = CONICAL_SURFACE ( 'NONE', #256, 2.799074173710927482, 0.2617993877991430240 ) ;
#35 = CIRCLE ( 'NONE', #160, 3.199999999999995293 ) ;
#36 = EDGE_LOOP ( 'NONE', ( #206 ) ) ;
#37 = PERSON_AND_ORGANIZATION_ROLE ( 'classification_officer' ) ;
#38 = CIRCLE ( 'NONE', #94, 3.950000000000000178 ) ;
#39 = CARTESIAN_POINT ( 'NONE',  ( 1.047444401652940007E-14, 3.083974596215556474, 3.000000000000000000 ) ) ;
#40 = FACE_OUTER_BOUND ( 'NONE', #150, .T. ) ;
#41 = DIRECTION ( 'NONE',  ( 3.491481338843133355E-15, -0.000000000000000000, 1.000000000000000000 ) ) ;
#42 = AXIS2_PLACEMENT_3D ( 'NONE', #103, #159, #76 ) ;
#43 = CARTESIAN_POINT ( 'NONE',  ( 8.030407079339205455E-14, 0.000000000000000000, 23.00000000000000000 ) ) ;
#44 = AXIS2_PLACEMENT_3D ( 'NONE', #86, #271, #176 ) ;
#45 = EDGE_CURVE ( 'NONE', #288, #288, #35, .T. ) ;
#46 = FACE_OUTER_BOUND ( 'NONE', #68, .T. ) ;
#47 = FACE_BOUND ( 'NONE', #33, .T. ) ;
#48 = EDGE_LOOP ( 'NONE', ( #281 ) ) ;
#49 = VERTEX_POINT ( 'NONE', #274 ) ;
#50 = FACE_OUTER_BOUND ( 'NONE', #32, .T. ) ;
#51 = ORIENTED_EDGE ( 'NONE', *, *, #152, .F. ) ;
#52 = CARTESIAN_POINT ( 'NONE',  ( 3.083974596215562691, 0.000000000000000000, 1.687499999999983791 ) ) ;
#53 = APPROVAL_PERSON_ORGANIZATION ( #77, #112, #117 ) ;
#54 = DIRECTION ( 'NONE',  ( 1.000000000000000000, 0.000000000000000000, -3.718494119811688104E-15 ) ) ;
#55 = AXIS2_PLACEMENT_3D ( 'NONE', #289, #350, #200 ) ;
#56 = EDGE_LOOP ( 'NONE', ( #51 ) ) ;
#57 = DATE_AND_TIME ( #15, #96 ) ;
#58 = FACE_OUTER_BOUND ( 'NONE', #81, .T. ) ;
#59 = VERTEX_POINT ( 'NONE', #52 ) ;
#60 = DIRECTION ( 'NONE',  ( 1.000000000000000000, 0.000000000000000000, -3.485915845712887694E-15 ) ) ;
#61 = PERSON_AND_ORGANIZATION ( #66, #93 ) ;
#62 = ORIENTED_EDGE ( 'NONE', *, *, #172, .F. ) ;
#63 = PLANE ( 'NONE',  #292 ) ;
#64 = ORIENTED_EDGE ( 'NONE', *, *, #97, .T. ) ;
#65 = EDGE_LOOP ( 'NONE', ( #221 ) ) ;
#66 = PERSON ( 'UNSPECIFIED', 'UNSPECIFIED', 'UNSPECIFIED', ('UNSPECIFIED'), ('UNSPECIFIED'), ('UNSPECIFIED') ) ;
#67 = AXIS2_PLACEMENT_3D ( 'NONE', #257, #291, #294 ) ;
#68 = EDGE_LOOP ( 'NONE', ( #384 ) ) ;
#69 = DIRECTION ( 'NONE',  ( 1.000000000000000000, 0.000000000000000000, -3.450625359085872984E-15 ) ) ;
#70 = VERTEX_POINT ( 'NONE', #195 ) ;
#71 = CC_DESIGN_SECURITY_CLASSIFICATION ( #390, ( #273 ) ) ;
#72 = CARTESIAN_POINT ( 'NONE',  ( 4.000000000000253131, 0.000000000000000000, 74.19999999999998863 ) ) ;
#73 = DATE_TIME_ROLE ( 'classification_date' ) ;
#74 = CARTESIAN_POINT ( 'NONE',  ( 3.083974596215560915, 0.000000000000000000, 1.312499999999983347 ) ) ;
#75 = CARTESIAN_POINT ( 'NONE',  ( 2.618611004132350143E-13, 0.000000000000000000, 75.00000000000000000 ) ) ;
#76 = DIRECTION ( 'NONE',  ( 1.000000000000000000, 0.000000000000000000, -3.491481338843133355E-15 ) ) ;
#77 = PERSON_AND_ORGANIZATION ( #66, #93 ) ;
#78 = APPLICATION_CONTEXT ( 'configuration controlled 3d designs of mechanical parts and assemblies' ) ;
#79 = FACE_OUTER_BOUND ( 'NONE', #356, .T. ) ;
#80 = EDGE_LOOP ( 'NONE', ( #64 ) ) ;
#81 = EDGE_LOOP ( 'NONE', ( #146 ) ) ;
#82 = PERSON_AND_ORGANIZATION ( #66, #93 ) ;
#83 = DIRECTION ( 'NONE',  ( 1.000000000000000000, 0.000000000000000000, -3.485915845712887694E-15 ) ) ;
#84 = ORIENTED_EDGE ( 'NONE', *, *, #330, .F. ) ;
#85 = CARTESIAN_POINT ( 'NONE',  ( 3.950000000000002842, 0.000000000000000000, 0.6874999999999799050 ) ) ;
#86 = CARTESIAN_POINT ( 'NONE',  ( 0.000000000000000000, 0.000000000000000000, 0.000000000000000000 ) ) ;
#87 = AXIS2_PLACEMENT_3D ( 'NONE', #23, #179, #383 ) ;
#88 = AXIS2_PLACEMENT_3D ( 'NONE', #298, #138, #144 ) ;
#89 = DIRECTION ( 'NONE',  ( 1.000000000000000000, 0.000000000000000000, -4.499968263306815724E-15 ) ) ;
#90 = PERSON_AND_ORGANIZATION ( #66, #93 ) ;
#91 = EDGE_LOOP ( 'NONE', ( #2 ) ) ;
#92 = ADVANCED_FACE ( 'NONE', ( #232, #100 ), #3, .T. ) ;
#93 = ORGANIZATION ( 'UNSPECIFIED', 'UNSPECIFIED', '' ) ;
#94 = AXIS2_PLACEMENT_3D ( 'NONE', #1, #365, #60 ) ;
#95 = ORIENTED_EDGE ( 'NONE', *, *, #276, .T. ) ;
#96 = LOCAL_TIME ( 10, 29, 56.00000000000000000, #326 ) ;
#97 = EDGE_CURVE ( 'NONE', #70, #70, #149, .T. ) ;
#98 = COORDINATED_UNIVERSAL_TIME_OFFSET ( 1, 0, .AHEAD. ) ;
#99 = FACE_OUTER_BOUND ( 'NONE', #190, .T. ) ;
#100 = FACE_OUTER_BOUND ( 'NONE', #343, .T. ) ;
#101 = DIRECTION ( 'NONE',  ( -1.000000000000000000, 0.000000000000000000, 3.491481338843133355E-15 ) ) ;
#102 = CIRCLE ( 'NONE', #258, 3.950000000000000178 ) ;
#103 = CARTESIAN_POINT ( 'NONE',  ( 9.337028745304632143E-33, 0.000000000000000000, 2.674231318789852444E-18 ) ) ;
#104 = CARTESIAN_POINT ( 'NONE',  ( 1.047444401652940953E-14, 0.000000000000000000, 3.000000000000002665 ) ) ;
#105 = ORIENTED_EDGE ( 'NONE', *, *, #97, .F. ) ;
#106 = PLANE ( 'NONE',  #42 ) ;
#107 = APPROVAL ( #184, 'UNSPECIFIED' ) ;
#108 = CARTESIAN_POINT ( 'NONE',  ( 3.950000000000008171, 0.000000000000000000, 2.312499999999981348 ) ) ;
#109 = CARTESIAN_POINT ( 'NONE',  ( 8.120773265950471193E-14, 0.000000000000000000, 23.25881904510251985 ) ) ;
#110 = VERTEX_POINT ( 'NONE', #378 ) ;
#111 = DIRECTION ( 'NONE',  ( 3.491481338843133355E-15, -0.000000000000000000, 1.000000000000000000 ) ) ;
#112 = APPROVAL ( #270, 'UNSPECIFIED' ) ;
#113 = PERSON_AND_ORGANIZATION_ROLE ( 'design_supplier' ) ;
#114 = CC_DESIGN_DATE_AND_TIME_ASSIGNMENT ( #351, #73, ( #390 ) ) ;
#115 = CARTESIAN_POINT ( 'NONE',  ( 2.400393420454632094E-15, 0.000000000000000000, 0.6874999999999936717 ) ) ;
#116 = EDGE_LOOP ( 'NONE', ( #386 ) ) ;
#117 = APPROVAL_ROLE ( '' ) ;
#118 = CIRCLE ( 'NONE', #205, 2.764999999999997460 ) ;
#119 = DIRECTION ( 'NONE',  ( 3.491481338843133355E-15, -0.000000000000000000, 1.000000000000000000 ) ) ;
#120 = CIRCLE ( 'NONE', #44, 2.759215069796392417 ) ;
#121 = DIRECTION ( 'NONE',  ( 3.491481338843133355E-15, -0.000000000000000000, 1.000000000000000000 ) ) ;
#122 = ORIENTED_EDGE ( 'NONE', *, *, #226, .T. ) ;
#123 = FACE_OUTER_BOUND ( 'NONE', #264, .T. ) ;
#124 = ORIENTED_EDGE ( 'NONE', *, *, #134, .F. ) ;
#125 = CLOSED_SHELL ( 'NONE', ( #334, #228, #92, #5, #220, #284, #163, #128, #185, #312, #321, #316, #249, #225, #361, #157 ) ) ;
#126 = EDGE_CURVE ( 'NONE', #319, #319, #367, .T. ) ;
#127 = CYLINDRICAL_SURFACE ( 'NONE', #174, 2.764999999999998792 ) ;
#128 = ADVANCED_FACE ( 'NONE', ( #133, #58 ), #168, .T. ) ;
#129 = CARTESIAN_POINT ( 'NONE',  ( 2.618611004132350648E-13, 0.000000000000000000, 75.00000000000001421 ) ) ;
#130 = DIRECTION ( 'NONE',  ( -3.491481338843133355E-15, 0.000000000000000000, -1.000000000000000000 ) ) ;
#131 = CIRCLE ( 'NONE', #132, 3.083974596215556474 ) ;
#132 = AXIS2_PLACEMENT_3D ( 'NONE', #104, #233, #327 ) ;
#133 = FACE_BOUND ( 'NONE', #307, .T. ) ;
#134 = EDGE_CURVE ( 'NONE', #324, #324, #196, .T. ) ;
#135 = VERTEX_POINT ( 'NONE', #346 ) ;
#136 = VERTEX_POINT ( 'NONE', #85 ) ;
#137 = DIRECTION ( 'NONE',  ( 1.000000000000000000, 0.000000000000000000, -3.491481338843132961E-15 ) ) ;
#138 = DIRECTION ( 'NONE',  ( 0.000000000000000000, 0.000000000000000000, 1.000000000000000000 ) ) ;
#139 = CIRCLE ( 'NONE', #299, 2.765000000000000124 ) ;
#140 = DIRECTION ( 'NONE',  ( 1.000000000000000000, 0.000000000000000000, -3.469446951953617344E-15 ) ) ;
#141 = ORIENTED_EDGE ( 'NONE', *, *, #31, .F. ) ;
#142 = APPROVAL_DATE_TIME ( #18, #198 ) ;
#143 = DIRECTION ( 'NONE',  ( 3.491481338843133355E-15, -0.000000000000000000, 1.000000000000000000 ) ) ;
#144 = DIRECTION ( 'NONE',  ( 1.000000000000000000, 0.000000000000000000, 0.000000000000000000 ) ) ;
#145 = CYLINDRICAL_SURFACE ( 'NONE', #9, 3.950000000000000178 ) ;
#146 = ORIENTED_EDGE ( 'NONE', *, *, #260, .T. ) ;
#147 = APPROVAL_DATE_TIME ( #57, #112 ) ;
#148 = SHAPE_DEFINITION_REPRESENTATION ( #305, #310 ) ;
#149 = CIRCLE ( 'NONE', #55, 3.950000000000000178 ) ;
#150 = EDGE_LOOP ( 'NONE', ( #177 ) ) ;
#151 = DIRECTION ( 'NONE',  ( 3.491481338843133355E-15, -0.000000000000000000, 1.000000000000000000 ) ) ;
#152 = EDGE_CURVE ( 'NONE', #287, #287, #120, .T. ) ;
#153 = CC_DESIGN_PERSON_AND_ORGANIZATION_ASSIGNMENT ( #301, #332, ( #187 ) ) ;
#154 = AXIS2_PLACEMENT_3D ( 'NONE', #377, #235, #374 ) ;
#155 = CARTESIAN_POINT ( 'NONE',  ( 1.047444401652940953E-14, 0.000000000000000000, 3.000000000000002665 ) ) ;
#156 = EDGE_CURVE ( 'NONE', #14, #14, #118, .T. ) ;
#157 = ADVANCED_FACE ( 'NONE', ( #240 ), #213, .F. ) ;
#158 = FACE_BOUND ( 'NONE', #36, .T. ) ;
#159 = DIRECTION ( 'NONE',  ( 3.491481338843133355E-15, -0.000000000000000000, 1.000000000000000000 ) ) ;
#160 = AXIS2_PLACEMENT_3D ( 'NONE', #129, #371, #286 ) ;
#161 = FACE_OUTER_BOUND ( 'NONE', #56, .T. ) ;
#162 = DIRECTION ( 'NONE',  ( 3.491481338843133355E-15, -0.000000000000000000, 1.000000000000000000 ) ) ;
#163 = ADVANCED_FACE ( 'NONE', ( #217, #261 ), #145, .T. ) ;
#164 = FACE_OUTER_BOUND ( 'NONE', #335, .T. ) ;
#165 = CC_DESIGN_PERSON_AND_ORGANIZATION_ASSIGNMENT ( #304, #360, ( #370 ) ) ;
#166 = DIRECTION ( 'NONE',  ( 1.000000000000000000, 0.000000000000000000, -3.513364001978343273E-15 ) ) ;
#167 = LOCAL_TIME ( 10, 29, 56.00000000000000000, #329 ) ;
#168 = CONICAL_SURFACE ( 'NONE', #395, 3.950000000000000178, 1.047197551196599852 ) ;
#169 = CARTESIAN_POINT ( 'NONE',  ( 0.000000000000000000, 0.000000000000000000, 0.000000000000000000 ) ) ;
#170 = EDGE_LOOP ( 'NONE', ( #267 ) ) ;
#171 = FACE_OUTER_BOUND ( 'NONE', #48, .T. ) ;
#172 = EDGE_CURVE ( 'NONE', #201, #201, #275, .T. ) ;
#173 = COORDINATED_UNIVERSAL_TIME_OFFSET ( 1, 0, .AHEAD. ) ;
#174 = AXIS2_PLACEMENT_3D ( 'NONE', #255, #349, #12 ) ;
#175 = CONICAL_SURFACE ( 'NONE', #318, 3.950000000000000178, 1.047197551196600074 ) ;
#176 = DIRECTION ( 'NONE',  ( 1.000000000000000000, 0.000000000000000000, -3.491481338843132961E-15 ) ) ;
#177 = ORIENTED_EDGE ( 'NONE', *, *, #156, .F. ) ;
#178 =( LENGTH_UNIT ( ) NAMED_UNIT ( * ) SI_UNIT ( .MILLI., .METRE. ) );
#179 = DIRECTION ( 'NONE',  ( 3.491481338843133355E-15, -0.000000000000000000, 1.000000000000000000 ) ) ;
#180 =( NAMED_UNIT ( * ) SI_UNIT ( $, .STERADIAN. ) SOLID_ANGLE_UNIT ( ) );
#181 = UNCERTAINTY_MEASURE_WITH_UNIT (LENGTH_MEASURE( 1.000000000000000082E-05 ), #178, 'distance_accuracy_value', 'NONE');
#182 = CC_DESIGN_PERSON_AND_ORGANIZATION_ASSIGNMENT ( #82, #382, ( #273 ) ) ;
#183 = FACE_OUTER_BOUND ( 'NONE', #328, .T. ) ;
#184 = APPROVAL_STATUS ( 'not_yet_approved' ) ;
#185 = ADVANCED_FACE ( 'NONE', ( #50, #171 ), #25, .T. ) ;
#186 = EDGE_LOOP ( 'NONE', ( #253 ) ) ;
#187 = PRODUCT_DEFINITION ( 'UNKNOWN', '', #273, #311 ) ;
#188 = EDGE_LOOP ( 'NONE', ( #277 ) ) ;
#189 = AXIS2_PLACEMENT_3D ( 'NONE', #169, #16, #137 ) ;
#190 = EDGE_LOOP ( 'NONE', ( #272 ) ) ;
#191 = CONICAL_SURFACE ( 'NONE', #189, 2.759215069796392417, 1.047197551196603404 ) ;
#192 = DIRECTION ( 'NONE',  ( -1.000000000000000000, 0.000000000000000000, 3.485915845712887694E-15 ) ) ;
#193 = CALENDAR_DATE ( 2023, 27, 9 ) ;
#194 = CARTESIAN_POINT ( 'NONE',  ( 9.685625943347885441E-14, 0.000000000000000000, 27.74073524493508813 ) ) ;
#195 = CARTESIAN_POINT ( 'NONE',  ( 3.950000000000008171, 0.000000000000000000, 2.187499999999981348 ) ) ;
#196 = CIRCLE ( 'NONE', #87, 3.999999999999994227 ) ;
#197 = CARTESIAN_POINT ( 'NONE',  ( 2.765000000000077840, 0.000000000000000000, 22.99999999999998934 ) ) ;
#198 = APPROVAL ( #358, 'UNSPECIFIED' ) ;
#199 = APPLICATION_CONTEXT ( 'configuration controlled 3d designs of mechanical parts and assemblies' ) ;
#200 = DIRECTION ( 'NONE',  ( 1.000000000000000000, 0.000000000000000000, -3.513364001978343273E-15 ) ) ;
#201 = VERTEX_POINT ( 'NONE', #322 ) ;
#202 = DIRECTION ( 'NONE',  ( 1.000000000000000000, 0.000000000000000000, -4.499968263306815724E-15 ) ) ;
#203 = CARTESIAN_POINT ( 'NONE',  ( 3.200000000000257305, 0.000000000000000000, 75.00000000000000000 ) ) ;
#204 = CARTESIAN_POINT ( 'NONE',  ( 3.950000000000002842, 0.000000000000000000, 0.8124999999999800160 ) ) ;
#205 = AXIS2_PLACEMENT_3D ( 'NONE', #43, #119, #337 ) ;
#206 = ORIENTED_EDGE ( 'NONE', *, *, #126, .F. ) ;
#207 = APPROVAL_ROLE ( '' ) ;
#208 = FACE_OUTER_BOUND ( 'NONE', #17, .T. ) ;
#209 = EDGE_LOOP ( 'NONE', ( #243 ) ) ;
#210 = APPROVAL_ROLE ( '' ) ;
#211 = EDGE_LOOP ( 'NONE', ( #95 ) ) ;
#212 = APPLICATION_PROTOCOL_DEFINITION ( 'international standard', 'config_control_design', 1994, #199 ) ;
#213 = PLANE ( 'NONE',  #20 ) ;
#214 = DATE_TIME_ROLE ( 'creation_date' ) ;
#215 = CC_DESIGN_APPROVAL ( #198, ( #273 ) ) ;
#216 = AXIS2_PLACEMENT_3D ( 'NONE', #194, #282, #317 ) ;
#217 = FACE_OUTER_BOUND ( 'NONE', #188, .T. ) ;
#218 = PERSON_AND_ORGANIZATION ( #66, #93 ) ;
#219 = CALENDAR_DATE ( 2023, 27, 9 ) ;
#220 = ADVANCED_FACE ( 'NONE', ( #208, #269 ), #293, .T. ) ;
#221 = ORIENTED_EDGE ( 'NONE', *, *, #45, .T. ) ;
#222 = EDGE_CURVE ( 'NONE', #136, #136, #102, .T. ) ;
#223 = EDGE_LOOP ( 'NONE', ( #239 ) ) ;
#224 =( GEOMETRIC_REPRESENTATION_CONTEXT ( 3 ) GLOBAL_UNCERTAINTY_ASSIGNED_CONTEXT ( ( #181 ) ) GLOBAL_UNIT_ASSIGNED_CONTEXT ( ( #178, #391, #180 ) ) REPRESENTATION_CONTEXT ( 'NONE', 'WORKASPACE' ) );
#225 = ADVANCED_FACE ( 'NONE', ( #375, #363 ), #297, .T. ) ;
#226 = EDGE_CURVE ( 'NONE', #110, #110, #131, .T. ) ;
#227 = DIRECTION ( 'NONE',  ( -1.000000000000000000, 0.000000000000000000, 3.469446951953619316E-15 ) ) ;
#228 = ADVANCED_FACE ( 'NONE', ( #79, #47 ), #191, .T. ) ;
#229 = CARTESIAN_POINT ( 'NONE',  ( 2.618611004132350143E-13, 0.000000000000000000, 75.00000000000000000 ) ) ;
#230 = CONICAL_SURFACE ( 'NONE', #265, 3.999999999999994227, 0.7853981633974418397 ) ;
#231 = AXIS2_PLACEMENT_3D ( 'NONE', #353, #300, #54 ) ;
#232 = FACE_OUTER_BOUND ( 'NONE', #91, .T. ) ;
#233 = DIRECTION ( 'NONE',  ( 3.491481338843133355E-15, -0.000000000000000000, 1.000000000000000000 ) ) ;
#234 = EDGE_LOOP ( 'NONE', ( #303 ) ) ;
#235 = DIRECTION ( 'NONE',  ( 3.491481338843133355E-15, -0.000000000000000000, 1.000000000000000000 ) ) ;
#236 = LOCAL_TIME ( 10, 29, 56.00000000000000000, #237 ) ;
#237 = COORDINATED_UNIVERSAL_TIME_OFFSET ( 1, 0, .AHEAD. ) ;
#238 = DIRECTION ( 'NONE',  ( 3.491481338843133355E-15, -0.000000000000000000, 1.000000000000000000 ) ) ;
#239 = ORIENTED_EDGE ( 'NONE', *, *, #330, .T. ) ;
#240 = FACE_OUTER_BOUND ( 'NONE', #65, .T. ) ;
#241 = DATE_AND_TIME ( #219, #167 ) ;
#242 = CARTESIAN_POINT ( 'NONE',  ( 2.618611004132350143E-13, 0.000000000000000000, 75.00000000000000000 ) ) ;
#243 = ORIENTED_EDGE ( 'NONE', *, *, #126, .T. ) ;
#244 = CIRCLE ( 'NONE', #389, 3.083974596215556918 ) ;
#245 = CALENDAR_DATE ( 2023, 27, 9 ) ;
#246 = LOCAL_TIME ( 10, 29, 56.00000000000000000, #173 ) ;
#247 = CONICAL_SURFACE ( 'NONE', #309, 3.083974596215556918, 1.047197551196599852 ) ;
#248 = CARTESIAN_POINT ( 'NONE',  ( 8.074050596074727740E-15, 0.000000000000000000, 2.312499999999995115 ) ) ;
#249 = ADVANCED_FACE ( 'NONE', ( #263, #379 ), #34, .T. ) ;
#250 = APPROVAL_PERSON_ORGANIZATION ( #61, #107, #210 ) ;
#251 = ORIENTED_EDGE ( 'NONE', *, *, #226, .F. ) ;
#252 = EDGE_CURVE ( 'NONE', #49, #49, #244, .T. ) ;
#253 = ORIENTED_EDGE ( 'NONE', *, *, #156, .T. ) ;
#254 = CARTESIAN_POINT ( 'NONE',  ( 2.836828587810024157E-15, 0.000000000000000000, 0.8124999999999937828 ) ) ;
#255 = CARTESIAN_POINT ( 'NONE',  ( 2.618611004132350143E-13, 0.000000000000000000, 75.00000000000000000 ) ) ;
#256 = AXIS2_PLACEMENT_3D ( 'NONE', #109, #238, #359 ) ;
#257 = CARTESIAN_POINT ( 'NONE',  ( 8.030407079339205455E-14, 0.000000000000000000, 23.00000000000000000 ) ) ;
#258 = AXIS2_PLACEMENT_3D ( 'NONE', #115, #13, #83 ) ;
#259 = DIRECTION ( 'NONE',  ( -3.491481338843133355E-15, 0.000000000000000000, -1.000000000000000000 ) ) ;
#260 = EDGE_CURVE ( 'NONE', #339, #339, #381, .T. ) ;
#261 = FACE_OUTER_BOUND ( 'NONE', #80, .T. ) ;
#262 = CALENDAR_DATE ( 2023, 27, 9 ) ;
#263 = FACE_OUTER_BOUND ( 'NONE', #308, .T. ) ;
#264 = EDGE_LOOP ( 'NONE', ( #122 ) ) ;
#265 = AXIS2_PLACEMENT_3D ( 'NONE', #285, #368, #227 ) ;
#266 = DIRECTION ( 'NONE',  ( 1.000000000000000000, 0.000000000000000000, -3.513364001978343273E-15 ) ) ;
#267 = ORIENTED_EDGE ( 'NONE', *, *, #31, .T. ) ;
#268 = DATE_AND_TIME ( #262, #236 ) ;
#269 = FACE_OUTER_BOUND ( 'NONE', #209, .T. ) ;
#270 = APPROVAL_STATUS ( 'not_yet_approved' ) ;
#271 = DIRECTION ( 'NONE',  ( 3.491481338843133355E-15, -0.000000000000000000, 1.000000000000000000 ) ) ;
#272 = ORIENTED_EDGE ( 'NONE', *, *, #28, .T. ) ;
#273 = PRODUCT_DEFINITION_FORMATION_WITH_SPECIFIED_SOURCE ( 'ANY', '', #370, .NOT_KNOWN. ) ;
#274 = CARTESIAN_POINT ( 'NONE',  ( 3.083974596215566688, 0.000000000000000000, 2.812499999999984901 ) ) ;
#275 = CIRCLE ( 'NONE', #231, 2.799074173710927482 ) ;
#276 = EDGE_CURVE ( 'NONE', #21, #21, #38, .T. ) ;
#277 = ORIENTED_EDGE ( 'NONE', *, *, #260, .F. ) ;
#278 = CC_DESIGN_APPROVAL ( #112, ( #187 ) ) ;
#279 = DIRECTION ( 'NONE',  ( 3.491481338843133355E-15, -0.000000000000000000, 1.000000000000000000 ) ) ;
#280 = AXIS2_PLACEMENT_3D ( 'NONE', #242, #295, #89 ) ;
#281 = ORIENTED_EDGE ( 'NONE', *, *, #252, .T. ) ;
#282 = DIRECTION ( 'NONE',  ( 3.491481338843133355E-15, -0.000000000000000000, 1.000000000000000000 ) ) ;
#283 = CIRCLE ( 'NONE', #154, 3.083974596215556918 ) ;
#284 = ADVANCED_FACE ( 'NONE', ( #183, #306 ), #247, .T. ) ;
#285 = CARTESIAN_POINT ( 'NONE',  ( 2.590679153421605076E-13, 0.000000000000000000, 74.20000000000000284 ) ) ;
#286 = DIRECTION ( 'NONE',  ( 1.000000000000000000, 0.000000000000000000, -4.336808689942024047E-15 ) ) ;
#287 = VERTEX_POINT ( 'NONE', #7 ) ;
#288 = VERTEX_POINT ( 'NONE', #203 ) ;
#289 = CARTESIAN_POINT ( 'NONE',  ( 7.637615428719337649E-15, 0.000000000000000000, 2.187499999999995115 ) ) ;
#290 = CC_DESIGN_APPROVAL ( #107, ( #390 ) ) ;
#291 = DIRECTION ( 'NONE',  ( 3.491481338843133355E-15, -0.000000000000000000, 1.000000000000000000 ) ) ;
#292 = AXIS2_PLACEMENT_3D ( 'NONE', #39, #130, #101 ) ;
#293 = CYLINDRICAL_SURFACE ( 'NONE', #345, 3.083974596215556918 ) ;
#294 = DIRECTION ( 'NONE',  ( 1.000000000000000000, 0.000000000000000000, -3.491481338843133355E-15 ) ) ;
#295 = DIRECTION ( 'NONE',  ( 3.491481338843133355E-15, -0.000000000000000000, 1.000000000000000000 ) ) ;
#296 = PRODUCT_RELATED_PRODUCT_CATEGORY ( 'detail', '', ( #370 ) ) ;
#297 = CYLINDRICAL_SURFACE ( 'NONE', #372, 3.999999999999996447 ) ;
#298 = CARTESIAN_POINT ( 'NONE',  ( 0.000000000000000000, 0.000000000000000000, 0.000000000000000000 ) ) ;
#299 = AXIS2_PLACEMENT_3D ( 'NONE', #155, #162, #69 ) ;
#300 = DIRECTION ( 'NONE',  ( 3.491481338843133355E-15, -0.000000000000000000, 1.000000000000000000 ) ) ;
#301 = PERSON_AND_ORGANIZATION ( #66, #93 ) ;
#302 = DIRECTION ( 'NONE',  ( -1.000000000000000000, 0.000000000000000000, 3.491481338843133355E-15 ) ) ;
#303 = ORIENTED_EDGE ( 'NONE', *, *, #28, .F. ) ;
#304 = PERSON_AND_ORGANIZATION ( #66, #93 ) ;
#305 = PRODUCT_DEFINITION_SHAPE ( 'NONE', 'NONE',  #187 ) ;
#306 = FACE_BOUND ( 'NONE', #223, .T. ) ;
#307 = EDGE_LOOP ( 'NONE', ( #331 ) ) ;
#308 = EDGE_LOOP ( 'NONE', ( #141 ) ) ;
#309 = AXIS2_PLACEMENT_3D ( 'NONE', #29, #151, #341 ) ;
#310 = ADVANCED_BREP_SHAPE_REPRESENTATION ( '960467', ( #366, #88 ), #224 ) ;
#311 = DESIGN_CONTEXT ( 'detailed design', #199, 'design' ) ;
#312 = ADVANCED_FACE ( 'NONE', ( #394, #123 ), #63, .F. ) ;
#313 = DIRECTION ( 'NONE',  ( 1.000000000000000000, 0.000000000000000000, -3.515600205708449291E-15 ) ) ;
#314 = AXIS2_PLACEMENT_3D ( 'NONE', #248, #121, #340 ) ;
#315 = ORIENTED_EDGE ( 'NONE', *, *, #152, .T. ) ;
#316 = ADVANCED_FACE ( 'NONE', ( #164, #373 ), #11, .F. ) ;
#317 = DIRECTION ( 'NONE',  ( 1.000000000000000000, 0.000000000000000000, -3.469446951953614189E-15 ) ) ;
#318 = AXIS2_PLACEMENT_3D ( 'NONE', #254, #259, #192 ) ;
#319 = VERTEX_POINT ( 'NONE', #74 ) ;
#320 = CARTESIAN_POINT ( 'NONE',  ( 4.582569257231592807E-15, 0.000000000000000000, 1.312499999999994227 ) ) ;
#321 = ADVANCED_FACE ( 'NONE', ( #40, #99 ), #127, .T. ) ;
#322 = CARTESIAN_POINT ( 'NONE',  ( 2.799074173711008751, 0.000000000000000000, 23.25881904510250919 ) ) ;
#323 = CARTESIAN_POINT ( 'NONE',  ( 8.074050596074727740E-15, 0.000000000000000000, 2.312499999999995115 ) ) ;
#324 = VERTEX_POINT ( 'NONE', #72 ) ;
#325 = DIRECTION ( 'NONE',  ( -3.491481338843133355E-15, 0.000000000000000000, -1.000000000000000000 ) ) ;
#326 = COORDINATED_UNIVERSAL_TIME_OFFSET ( 1, 0, .AHEAD. ) ;
#327 = DIRECTION ( 'NONE',  ( 1.000000000000000000, 0.000000000000000000, -3.515600205708450080E-15 ) ) ;
#328 = EDGE_LOOP ( 'NONE', ( #105 ) ) ;
#329 = COORDINATED_UNIVERSAL_TIME_OFFSET ( 1, 0, .AHEAD. ) ;
#330 = EDGE_CURVE ( 'NONE', #59, #59, #283, .T. ) ;
#331 = ORIENTED_EDGE ( 'NONE', *, *, #252, .F. ) ;
#332 = PERSON_AND_ORGANIZATION_ROLE ( 'creator' ) ;
#333 = DIRECTION ( 'NONE',  ( -3.491481338843133355E-15, 0.000000000000000000, -1.000000000000000000 ) ) ;
#334 = ADVANCED_FACE ( 'NONE', ( #161 ), #106, .F. ) ;
#335 = EDGE_LOOP ( 'NONE', ( #62 ) ) ;
#336 = PERSON_AND_ORGANIZATION ( #66, #93 ) ;
#337 = DIRECTION ( 'NONE',  ( 1.000000000000000000, 0.000000000000000000, -3.764318573548228372E-15 ) ) ;
#338 = ORIENTED_EDGE ( 'NONE', *, *, #222, .F. ) ;
#339 = VERTEX_POINT ( 'NONE', #108 ) ;
#340 = DIRECTION ( 'NONE',  ( 1.000000000000000000, 0.000000000000000000, -3.513364001978343273E-15 ) ) ;
#341 = DIRECTION ( 'NONE',  ( 1.000000000000000000, 0.000000000000000000, -3.515600205708449291E-15 ) ) ;
#342 = EDGE_LOOP ( 'NONE', ( #30 ) ) ;
#343 = EDGE_LOOP ( 'NONE', ( #380 ) ) ;
#344 = CC_DESIGN_PERSON_AND_ORGANIZATION_ASSIGNMENT ( #218, #37, ( #390 ) ) ;
#345 = AXIS2_PLACEMENT_3D ( 'NONE', #75, #385, #202 ) ;
#346 = CARTESIAN_POINT ( 'NONE',  ( 2.765000000000010338, 0.000000000000000000, 2.999999999999993339 ) ) ;
#347 = DIRECTION ( 'NONE',  ( 3.491481338843133355E-15, -0.000000000000000000, 1.000000000000000000 ) ) ;
#348 = AXIS2_PLACEMENT_3D ( 'NONE', #320, #41, #10 ) ;
#349 = DIRECTION ( 'NONE',  ( 3.491481338843133355E-15, -0.000000000000000000, 1.000000000000000000 ) ) ;
#350 = DIRECTION ( 'NONE',  ( 3.491481338843133355E-15, -0.000000000000000000, 1.000000000000000000 ) ) ;
#351 = DATE_AND_TIME ( #193, #27 ) ;
#352 = CARTESIAN_POINT ( 'NONE',  ( 4.000000000000096811, 0.000000000000000000, 27.74073524493507392 ) ) ;
#353 = CARTESIAN_POINT ( 'NONE',  ( 8.120773265950471193E-14, 0.000000000000000000, 23.25881904510251985 ) ) ;
#354 = FACE_BOUND ( 'NONE', #342, .T. ) ;
#355 = CARTESIAN_POINT ( 'NONE',  ( 2.618611004132350143E-13, 0.000000000000000000, 75.00000000000000000 ) ) ;
#356 = EDGE_LOOP ( 'NONE', ( #338 ) ) ;
#357 = VERTEX_POINT ( 'NONE', #352 ) ;
#358 = APPROVAL_STATUS ( 'not_yet_approved' ) ;
#359 = DIRECTION ( 'NONE',  ( 1.000000000000000000, 0.000000000000000000, -3.718494119811688104E-15 ) ) ;
#360 = PERSON_AND_ORGANIZATION_ROLE ( 'design_owner' ) ;
#361 = ADVANCED_FACE ( 'NONE', ( #354, #46 ), #230, .T. ) ;
#362 = DIRECTION ( 'NONE',  ( -1.000000000000000000, 0.000000000000000000, 3.513364001978343273E-15 ) ) ;
#363 = FACE_OUTER_BOUND ( 'NONE', #170, .T. ) ;
#364 = AXIS2_PLACEMENT_3D ( 'NONE', #229, #347, #166 ) ;
#365 = DIRECTION ( 'NONE',  ( 3.491481338843133355E-15, -0.000000000000000000, 1.000000000000000000 ) ) ;
#366 = MANIFOLD_SOLID_BREP ( 'Corps-Déplacer/Copier1', #125 ) ;
#367 = CIRCLE ( 'NONE', #348, 3.083974596215556474 ) ;
#368 = DIRECTION ( 'NONE',  ( -3.491481338843133355E-15, 0.000000000000000000, -1.000000000000000000 ) ) ;
#369 = CC_DESIGN_PERSON_AND_ORGANIZATION_ASSIGNMENT ( #90, #113, ( #273 ) ) ;
#370 = PRODUCT ( '960467', '960467', '', ( #387 ) ) ;
#371 = DIRECTION ( 'NONE',  ( 3.491481338843133355E-15, -0.000000000000000000, 1.000000000000000000 ) ) ;
#372 = AXIS2_PLACEMENT_3D ( 'NONE', #355, #111, #140 ) ;
#373 = FACE_OUTER_BOUND ( 'NONE', #186, .T. ) ;
#374 = DIRECTION ( 'NONE',  ( 1.000000000000000000, 0.000000000000000000, -3.515600205708449291E-15 ) ) ;
#375 = FACE_OUTER_BOUND ( 'NONE', #376, .T. ) ;
#376 = EDGE_LOOP ( 'NONE', ( #124 ) ) ;
#377 = CARTESIAN_POINT ( 'NONE',  ( 5.891874759297768604E-15, 0.000000000000000000, 1.687499999999994671 ) ) ;
#378 = CARTESIAN_POINT ( 'NONE',  ( 3.083974596215566688, 0.000000000000000000, 2.999999999999992006 ) ) ;
#379 = FACE_BOUND ( 'NONE', #116, .T. ) ;
#380 = ORIENTED_EDGE ( 'NONE', *, *, #222, .T. ) ;
#381 = CIRCLE ( 'NONE', #314, 3.950000000000000178 ) ;
#382 = PERSON_AND_ORGANIZATION_ROLE ( 'creator' ) ;
#383 = DIRECTION ( 'NONE',  ( 1.000000000000000000, 0.000000000000000000, -3.469446951953619316E-15 ) ) ;
#384 = ORIENTED_EDGE ( 'NONE', *, *, #134, .T. ) ;
#385 = DIRECTION ( 'NONE',  ( 3.491481338843133355E-15, -0.000000000000000000, 1.000000000000000000 ) ) ;
#386 = ORIENTED_EDGE ( 'NONE', *, *, #172, .T. ) ;
#387 = MECHANICAL_CONTEXT ( 'NONE', #78, 'mechanical' ) ;
#388 = CARTESIAN_POINT ( 'NONE',  ( 2.618611004132350143E-13, 0.000000000000000000, 75.00000000000000000 ) ) ;
#389 = AXIS2_PLACEMENT_3D ( 'NONE', #393, #279, #313 ) ;
#390 = SECURITY_CLASSIFICATION ( '', '', #24 ) ;
#391 =( NAMED_UNIT ( * ) PLANE_ANGLE_UNIT ( ) SI_UNIT ( $, .RADIAN. ) );
#392 = CIRCLE ( 'NONE', #216, 4.000000000000000000 ) ;
#393 = CARTESIAN_POINT ( 'NONE',  ( 9.819791265496295996E-15, 0.000000000000000000, 2.812499999999995559 ) ) ;
#394 = FACE_BOUND ( 'NONE', #234, .T. ) ;
#395 = AXIS2_PLACEMENT_3D ( 'NONE', #323, #333, #362 ) ;
ENDSEC;
END-ISO-10303-21;
