ISO-10303-21;
HEADER;
FILE_DESCRIPTION (( 'STEP AP203' ),
    '1' );
FILE_NAME ('960466.step',
    '2023-09-27T08:29:56',
    ( '' ),
    ( '' ),
    'SwSTEP 2.0',
    'SolidWorks 2022',
    '' );
FILE_SCHEMA (( 'CONFIG_CONTROL_DESIGN' ));
ENDSEC;

DATA;
#1 = ORIENTED_EDGE ( 'NONE', *, *, #314, .T. ) ;
#2 = APPROVAL ( #198, 'UNSPECIFIED' ) ;
#3 = CALENDAR_DATE ( 2023, 27, 9 ) ;
#4 = ORIENTED_EDGE ( 'NONE', *, *, #168, .T. ) ;
#5 = CYLINDRICAL_SURFACE ( 'NONE', #102, 3.254999999999999893 ) ;
#6 = DIRECTION ( 'NONE',  ( 1.000000000000000000, 0.000000000000000000, -3.509420569020073468E-15 ) ) ;
#7 = AXIS2_PLACEMENT_3D ( 'NONE', #78, #197, #377 ) ;
#8 = CARTESIAN_POINT ( 'NONE',  ( 3.255000000000002114, 0.000000000000000000, 0.6770833333333167170 ) ) ;
#9 = FACE_OUTER_BOUND ( 'NONE', #185, .T. ) ;
#10 = DIRECTION ( 'NONE',  ( 3.491481338843133355E-15, -0.000000000000000000, 1.000000000000000000 ) ) ;
#11 = CARTESIAN_POINT ( 'NONE',  ( 2.618611004132350143E-13, 0.000000000000000000, 75.00000000000000000 ) ) ;
#12 = CARTESIAN_POINT ( 'NONE',  ( 8.728703347107841277E-15, 0.000000000000000000, 2.500000000000002220 ) ) ;
#13 = EDGE_CURVE ( 'NONE', #35, #35, #103, .T. ) ;
#14 = FACE_OUTER_BOUND ( 'NONE', #20, .T. ) ;
#15 = AXIS2_PLACEMENT_3D ( 'NONE', #31, #98, #254 ) ;
#16 = CARTESIAN_POINT ( 'NONE',  ( 2.533312163512968063, 0.000000000000000000, 1.406249999999988898 ) ) ;
#17 = DIRECTION ( 'NONE',  ( -1.000000000000000000, 0.000000000000000000, 3.464117540353071286E-15 ) ) ;
#18 = ADVANCED_FACE ( 'NONE', ( #58, #329 ), #57, .T. ) ;
#19 = DIRECTION ( 'NONE',  ( 3.491481338843133355E-15, -0.000000000000000000, 1.000000000000000000 ) ) ;
#20 = EDGE_LOOP ( 'NONE', ( #336 ) ) ;
#21 = DIRECTION ( 'NONE',  ( 3.491481338843133355E-15, -0.000000000000000000, 1.000000000000000000 ) ) ;
#22 = AXIS2_PLACEMENT_3D ( 'NONE', #223, #191, #96 ) ;
#23 = ADVANCED_FACE ( 'NONE', ( #123, #215 ), #157, .T. ) ;
#24 = EDGE_LOOP ( 'NONE', ( #392 ) ) ;
#25 = ORIENTED_EDGE ( 'NONE', *, *, #353, .T. ) ;
#26 = DIRECTION ( 'NONE',  ( 1.000000000000000000, 0.000000000000000000, -6.127058634796672738E-15 ) ) ;
#27 = APPROVAL_PERSON_ORGANIZATION ( #299, #83, #153 ) ;
#28 = ORIENTED_EDGE ( 'NONE', *, *, #56, .F. ) ;
#29 = EDGE_LOOP ( 'NONE', ( #63 ) ) ;
#30 = VERTEX_POINT ( 'NONE', #342 ) ;
#31 = CARTESIAN_POINT ( 'NONE',  ( 0.000000000000000000, 0.000000000000000000, 0.000000000000000000 ) ) ;
#32 = CARTESIAN_POINT ( 'NONE',  ( 3.255000000000006999, 0.000000000000000000, 1.927083333333317938 ) ) ;
#33 = CARTESIAN_POINT ( 'NONE',  ( 2.618611004132350648E-13, 3.199999999999995293, 75.00000000000001421 ) ) ;
#34 = FACE_OUTER_BOUND ( 'NONE', #173, .T. ) ;
#35 = VERTEX_POINT ( 'NONE', #373 ) ;
#36 = FACE_BOUND ( 'NONE', #219, .T. ) ;
#37 = VERTEX_POINT ( 'NONE', #257 ) ;
#38 = CARTESIAN_POINT ( 'NONE',  ( 8.728703347107834966E-15, 2.533312163512962734, 2.500000000000000444 ) ) ;
#39 = DIRECTION ( 'NONE',  ( 3.491481338843133355E-15, -0.000000000000000000, 1.000000000000000000 ) ) ;
#40 = CC_DESIGN_DATE_AND_TIME_ASSIGNMENT ( #273, #55, ( #350 ) ) ;
#41 = TOROIDAL_SURFACE ( 'NONE', #76, 3.264999999999997904, 1.000000000000000666 ) ;
#42 = FACE_OUTER_BOUND ( 'NONE', #300, .T. ) ;
#43 = FACE_OUTER_BOUND ( 'NONE', #356, .T. ) ;
#44 = COORDINATED_UNIVERSAL_TIME_OFFSET ( 1, 0, .AHEAD. ) ;
#45 = LOCAL_TIME ( 10, 29, 56.00000000000000000, #48 ) ;
#46 = CIRCLE ( 'NONE', #321, 3.254999999999999893 ) ;
#47 = DIRECTION ( 'NONE',  ( 3.491481338843133355E-15, -0.000000000000000000, 1.000000000000000000 ) ) ;
#48 = COORDINATED_UNIVERSAL_TIME_OFFSET ( 1, 0, .AHEAD. ) ;
#49 = ORIENTED_EDGE ( 'NONE', *, *, #111, .T. ) ;
#50 = ADVANCED_FACE ( 'NONE', ( #282, #92 ), #133, .T. ) ;
#51 = CIRCLE ( 'NONE', #276, 3.199999999999995293 ) ;
#52 = EDGE_LOOP ( 'NONE', ( #49 ) ) ;
#53 = APPLICATION_CONTEXT ( 'configuration controlled 3d designs of mechanical parts and assemblies' ) ;
#54 = EDGE_LOOP ( 'NONE', ( #239 ) ) ;
#55 = DATE_TIME_ROLE ( 'creation_date' ) ;
#56 = EDGE_CURVE ( 'NONE', #131, #131, #119, .T. ) ;
#57 = CYLINDRICAL_SURFACE ( 'NONE', #362, 2.264999999999998792 ) ;
#58 = FACE_OUTER_BOUND ( 'NONE', #86, .T. ) ;
#59 = CONICAL_SURFACE ( 'NONE', #172, 3.254999999999999893, 1.047197551196590748 ) ;
#60 = CARTESIAN_POINT ( 'NONE',  ( 3.818807714359692490E-15, 0.000000000000000000, 1.093750000000004441 ) ) ;
#61 = CC_DESIGN_APPROVAL ( #83, ( #357 ) ) ;
#62 = DIRECTION ( 'NONE',  ( 3.491481338843133355E-15, -0.000000000000000000, 1.000000000000000000 ) ) ;
#63 = ORIENTED_EDGE ( 'NONE', *, *, #115, .F. ) ;
#64 = FACE_OUTER_BOUND ( 'NONE', #382, .T. ) ;
#65 = ORIENTED_EDGE ( 'NONE', *, *, #115, .T. ) ;
#66 = EDGE_LOOP ( 'NONE', ( #72 ) ) ;
#67 = DIRECTION ( 'NONE',  ( -3.491481338843133355E-15, 0.000000000000000000, -1.000000000000000000 ) ) ;
#68 = FACE_OUTER_BOUND ( 'NONE', #54, .T. ) ;
#69 = CARTESIAN_POINT ( 'NONE',  ( 6.514691850082629849E-14, 0.000000000000000000, 18.65881904510251843 ) ) ;
#70 = VERTEX_POINT ( 'NONE', #376 ) ;
#71 = DIRECTION ( 'NONE',  ( -1.000000000000000000, 0.000000000000000000, 3.491481338843133355E-15 ) ) ;
#72 = ORIENTED_EDGE ( 'NONE', *, *, #255, .F. ) ;
#73 = APPLICATION_PROTOCOL_DEFINITION ( 'international standard', 'config_control_design', 1994, #53 ) ;
#74 = FACE_BOUND ( 'NONE', #364, .T. ) ;
#75 = FACE_OUTER_BOUND ( 'NONE', #52, .T. ) ;
#76 = AXIS2_PLACEMENT_3D ( 'NONE', #368, #10, #291 ) ;
#77 = ADVANCED_FACE ( 'NONE', ( #265, #142 ), #159, .F. ) ;
#78 = CARTESIAN_POINT ( 'NONE',  ( 8.728703347107841277E-15, 0.000000000000000000, 2.500000000000002220 ) ) ;
#79 = PERSON_AND_ORGANIZATION ( #355, #251 ) ;
#80 = ADVANCED_FACE ( 'NONE', ( #132, #42 ), #228, .T. ) ;
#81 = CIRCLE ( 'NONE', #296, 3.254999999999999893 ) ;
#82 = DIRECTION ( 'NONE',  ( 1.000000000000000000, 0.000000000000000000, -3.497426362856466107E-15 ) ) ;
#83 = APPROVAL ( #204, 'UNSPECIFIED' ) ;
#84 = MANIFOLD_SOLID_BREP ( 'Corps-Déplacer/Copier1', #358 ) ;
#85 = AXIS2_PLACEMENT_3D ( 'NONE', #130, #193, #165 ) ;
#86 = EDGE_LOOP ( 'NONE', ( #283 ) ) ;
#87 = CC_DESIGN_PERSON_AND_ORGANIZATION_ASSIGNMENT ( #301, #91, ( #295 ) ) ;
#88 = APPROVAL_STATUS ( 'not_yet_approved' ) ;
#89 = DIRECTION ( 'NONE',  ( 1.000000000000000000, 0.000000000000000000, -3.423824945385437424E-15 ) ) ;
#90 = FACE_OUTER_BOUND ( 'NONE', #390, .T. ) ;
#91 = PERSON_AND_ORGANIZATION_ROLE ( 'classification_officer' ) ;
#92 = FACE_BOUND ( 'NONE', #150, .T. ) ;
#93 = ORIENTED_EDGE ( 'NONE', *, *, #286, .F. ) ;
#94 =( GEOMETRIC_REPRESENTATION_CONTEXT ( 3 ) GLOBAL_UNCERTAINTY_ASSIGNED_CONTEXT ( ( #391 ) ) GLOBAL_UNIT_ASSIGNED_CONTEXT ( ( #158, #337, #366 ) ) REPRESENTATION_CONTEXT ( 'NONE', 'WORKASPACE' ) );
#95 = ORIENTED_EDGE ( 'NONE', *, *, #353, .F. ) ;
#96 = DIRECTION ( 'NONE',  ( 1.000000000000000000, 0.000000000000000000, 0.000000000000000000 ) ) ;
#97 = VERTEX_POINT ( 'NONE', #32 ) ;
#98 = DIRECTION ( 'NONE',  ( 3.491481338843133355E-15, -0.000000000000000000, 1.000000000000000000 ) ) ;
#99 = EDGE_LOOP ( 'NONE', ( #28 ) ) ;
#100 = CARTESIAN_POINT ( 'NONE',  ( 2.265000000000008562, 0.000000000000000000, 2.499999999999994227 ) ) ;
#101 = CARTESIAN_POINT ( 'NONE',  ( 6.514691850082629849E-14, 0.000000000000000000, 18.65881904510251843 ) ) ;
#102 = AXIS2_PLACEMENT_3D ( 'NONE', #11, #287, #217 ) ;
#103 = CIRCLE ( 'NONE', #190, 2.533312163512963178 ) ;
#104 = VERTEX_POINT ( 'NONE', #138 ) ;
#105 = FACE_OUTER_BOUND ( 'NONE', #331, .T. ) ;
#106 = MECHANICAL_CONTEXT ( 'NONE', #53, 'mechanical' ) ;
#107 = DIRECTION ( 'NONE',  ( 3.491481338843133355E-15, -0.000000000000000000, 1.000000000000000000 ) ) ;
#108 = ADVANCED_FACE ( 'NONE', ( #139 ), #345, .F. ) ;
#109 = AXIS2_PLACEMENT_3D ( 'NONE', #317, #39, #156 ) ;
#110 = DIRECTION ( 'NONE',  ( 1.000000000000000000, 0.000000000000000000, -4.336808689942024047E-15 ) ) ;
#111 = EDGE_CURVE ( 'NONE', #97, #97, #81, .T. ) ;
#112 = EDGE_LOOP ( 'NONE', ( #4 ) ) ;
#113 = ADVANCED_FACE ( 'NONE', ( #105, #230 ), #269, .T. ) ;
#114 = AXIS2_PLACEMENT_3D ( 'NONE', #318, #141, #17 ) ;
#115 = EDGE_CURVE ( 'NONE', #288, #288, #326, .T. ) ;
#116 = FACE_BOUND ( 'NONE', #210, .T. ) ;
#117 = DATE_AND_TIME ( #245, #206 ) ;
#118 = EDGE_LOOP ( 'NONE', ( #65 ) ) ;
#119 = CIRCLE ( 'NONE', #248, 2.533312163512963178 ) ;
#120 = APPROVAL_PERSON_ORGANIZATION ( #125, #370, #176 ) ;
#121 = CIRCLE ( 'NONE', #339, 2.265000000000000124 ) ;
#122 = ORIENTED_EDGE ( 'NONE', *, *, #56, .T. ) ;
#123 = FACE_OUTER_BOUND ( 'NONE', #99, .T. ) ;
#124 = DIRECTION ( 'NONE',  ( 3.491481338843133355E-15, -0.000000000000000000, 1.000000000000000000 ) ) ;
#125 = PERSON_AND_ORGANIZATION ( #355, #251 ) ;
#126 = CARTESIAN_POINT ( 'NONE',  ( 2.618611004132350143E-13, 0.000000000000000000, 75.00000000000000000 ) ) ;
#127 = VERTEX_POINT ( 'NONE', #8 ) ;
#128 = CARTESIAN_POINT ( 'NONE',  ( 4.909895632748147998E-15, 0.000000000000000000, 1.406249999999997780 ) ) ;
#129 = CIRCLE ( 'NONE', #348, 3.254999999999999893 ) ;
#130 = CARTESIAN_POINT ( 'NONE',  ( 2.590679153421605076E-13, 0.000000000000000000, 74.20000000000000284 ) ) ;
#131 = VERTEX_POINT ( 'NONE', #16 ) ;
#132 = FACE_OUTER_BOUND ( 'NONE', #29, .T. ) ;
#133 = CONICAL_SURFACE ( 'NONE', #385, 2.533312163512963178, 1.047197551196604959 ) ;
#134 = CARTESIAN_POINT ( 'NONE',  ( 4.000000000000253131, 0.000000000000000000, 74.19999999999998863 ) ) ;
#135 = DIRECTION ( 'NONE',  ( 1.000000000000000000, 0.000000000000000000, -3.464117540353071286E-15 ) ) ;
#136 = DIRECTION ( 'NONE',  ( -1.000000000000000000, 0.000000000000000000, 3.497426362856466107E-15 ) ) ;
#137 = AXIS2_PLACEMENT_3D ( 'NONE', #60, #21, #144 ) ;
#138 = CARTESIAN_POINT ( 'NONE',  ( 2.533312163512966730, 0.000000000000000000, 1.093749999999995559 ) ) ;
#139 = FACE_OUTER_BOUND ( 'NONE', #203, .T. ) ;
#140 = DIRECTION ( 'NONE',  ( 3.491481338843133355E-15, -0.000000000000000000, 1.000000000000000000 ) ) ;
#141 = DIRECTION ( 'NONE',  ( -3.491481338843133355E-15, 0.000000000000000000, -1.000000000000000000 ) ) ;
#142 = FACE_OUTER_BOUND ( 'NONE', #216, .T. ) ;
#143 = LOCAL_TIME ( 10, 29, 56.00000000000000000, #330 ) ;
#144 = DIRECTION ( 'NONE',  ( 1.000000000000000000, 0.000000000000000000, -3.509420569020073863E-15 ) ) ;
#145 = AXIS2_PLACEMENT_3D ( 'NONE', #101, #19, #379 ) ;
#146 = EDGE_LOOP ( 'NONE', ( #275 ) ) ;
#147 = EDGE_CURVE ( 'NONE', #313, #313, #129, .T. ) ;
#148 = EDGE_LOOP ( 'NONE', ( #344 ) ) ;
#149 = SHAPE_DEFINITION_REPRESENTATION ( #233, #151 ) ;
#150 = EDGE_LOOP ( 'NONE', ( #122 ) ) ;
#151 = ADVANCED_BREP_SHAPE_REPRESENTATION ( '960466', ( #84, #22 ), #94 ) ;
#152 = LOCAL_TIME ( 10, 29, 56.00000000000000000, #394 ) ;
#153 = APPROVAL_ROLE ( '' ) ;
#154 = PERSON_AND_ORGANIZATION ( #355, #251 ) ;
#155 = EDGE_LOOP ( 'NONE', ( #200 ) ) ;
#156 = DIRECTION ( 'NONE',  ( 1.000000000000000000, 0.000000000000000000, -3.497426362856466107E-15 ) ) ;
#157 = CYLINDRICAL_SURFACE ( 'NONE', #338, 2.533312163512962734 ) ;
#158 =( LENGTH_UNIT ( ) NAMED_UNIT ( * ) SI_UNIT ( .MILLI., .METRE. ) );
#159 = PLANE ( 'NONE',  #247 ) ;
#160 = AXIS2_PLACEMENT_3D ( 'NONE', #268, #231, #349 ) ;
#161 = CARTESIAN_POINT ( 'NONE',  ( 3.255000000000006555, 0.000000000000000000, 1.822916666666648977 ) ) ;
#162 = CYLINDRICAL_SURFACE ( 'NONE', #195, 2.533312163512962734 ) ;
#163 = CARTESIAN_POINT ( 'NONE',  ( 2.299074173710993207, 0.000000000000000000, 18.65881904510251132 ) ) ;
#164 = DIRECTION ( 'NONE',  ( 3.491481338843133355E-15, -0.000000000000000000, 1.000000000000000000 ) ) ;
#165 = DIRECTION ( 'NONE',  ( 1.000000000000000000, 0.000000000000000000, -3.469446951953619316E-15 ) ) ;
#166 = CARTESIAN_POINT ( 'NONE',  ( 2.618611004132350143E-13, 0.000000000000000000, 75.00000000000000000 ) ) ;
#167 = DIRECTION ( 'NONE',  ( 3.491481338843133355E-15, -0.000000000000000000, 1.000000000000000000 ) ) ;
#168 = EDGE_CURVE ( 'NONE', #281, #281, #121, .T. ) ;
#169 = CIRCLE ( 'NONE', #240, 2.264999999999997904 ) ;
#170 = CALENDAR_DATE ( 2023, 27, 9 ) ;
#171 = ADVANCED_FACE ( 'NONE', ( #74, #347 ), #311, .T. ) ;
#172 = AXIS2_PLACEMENT_3D ( 'NONE', #322, #271, #136 ) ;
#173 = EDGE_LOOP ( 'NONE', ( #279 ) ) ;
#174 = COORDINATED_UNIVERSAL_TIME_OFFSET ( 1, 0, .AHEAD. ) ;
#175 = ORIENTED_EDGE ( 'NONE', *, *, #184, .F. ) ;
#176 = APPROVAL_ROLE ( '' ) ;
#177 = CARTESIAN_POINT ( 'NONE',  ( 2.618611004132350143E-13, 0.000000000000000000, 75.00000000000000000 ) ) ;
#178 = CALENDAR_DATE ( 2023, 27, 9 ) ;
#179 = CIRCLE ( 'NONE', #15, 2.262679224830326241 ) ;
#180 = CARTESIAN_POINT ( 'NONE',  ( 8.183159387913613129E-15, 0.000000000000000000, 2.343750000000005329 ) ) ;
#181 = DIRECTION ( 'NONE',  ( 1.000000000000000000, 0.000000000000000000, -5.478119912616700510E-15 ) ) ;
#182 = VERTEX_POINT ( 'NONE', #163 ) ;
#183 = CARTESIAN_POINT ( 'NONE',  ( 3.095117002912797936E-32, 0.000000000000000000, 8.864767422581537895E-18 ) ) ;
#184 = EDGE_CURVE ( 'NONE', #37, #37, #179, .T. ) ;
#185 = EDGE_LOOP ( 'NONE', ( #1 ) ) ;
#186 = ADVANCED_FACE ( 'NONE', ( #9 ), #369, .F. ) ;
#187 = DIRECTION ( 'NONE',  ( 1.000000000000000000, 0.000000000000000000, -3.491481338843133355E-15 ) ) ;
#188 = DIRECTION ( 'NONE',  ( 1.000000000000000000, 0.000000000000000000, -3.491481338843133355E-15 ) ) ;
#189 = CIRCLE ( 'NONE', #160, 4.000000000000000000 ) ;
#190 = AXIS2_PLACEMENT_3D ( 'NONE', #180, #62, #89 ) ;
#191 = DIRECTION ( 'NONE',  ( 0.000000000000000000, 0.000000000000000000, 1.000000000000000000 ) ) ;
#192 = DIRECTION ( 'NONE',  ( 1.000000000000000000, 0.000000000000000000, -3.018125288540465781E-15 ) ) ;
#193 = DIRECTION ( 'NONE',  ( 3.491481338843133355E-15, -0.000000000000000000, 1.000000000000000000 ) ) ;
#194 = DIRECTION ( 'NONE',  ( 3.491481338843133355E-15, -0.000000000000000000, 1.000000000000000000 ) ) ;
#195 = AXIS2_PLACEMENT_3D ( 'NONE', #166, #140, #264 ) ;
#196 = EDGE_CURVE ( 'NONE', #182, #182, #354, .T. ) ;
#197 = DIRECTION ( 'NONE',  ( 3.491481338843133355E-15, -0.000000000000000000, 1.000000000000000000 ) ) ;
#198 = APPROVAL_STATUS ( 'not_yet_approved' ) ;
#199 = EDGE_LOOP ( 'NONE', ( #308 ) ) ;
#200 = ORIENTED_EDGE ( 'NONE', *, *, #270, .T. ) ;
#201 = CC_DESIGN_SECURITY_CLASSIFICATION ( #295, ( #357 ) ) ;
#202 = AXIS2_PLACEMENT_3D ( 'NONE', #341, #310, #292 ) ;
#203 = EDGE_LOOP ( 'NONE', ( #175 ) ) ;
#204 = APPROVAL_STATUS ( 'not_yet_approved' ) ;
#205 = CC_DESIGN_PERSON_AND_ORGANIZATION_ASSIGNMENT ( #360, #243, ( #350 ) ) ;
#206 = LOCAL_TIME ( 10, 29, 56.00000000000000000, #44 ) ;
#207 = SECURITY_CLASSIFICATION_LEVEL ( 'unclassified' ) ;
#208 = ADVANCED_FACE ( 'NONE', ( #36, #374 ), #59, .T. ) ;
#209 = APPROVAL_DATE_TIME ( #117, #2 ) ;
#210 = EDGE_LOOP ( 'NONE', ( #237 ) ) ;
#211 = CYLINDRICAL_SURFACE ( 'NONE', #305, 3.254999999999999893 ) ;
#212 = DATE_AND_TIME ( #170, #152 ) ;
#213 = CARTESIAN_POINT ( 'NONE',  ( 4.909895632748147998E-15, 0.000000000000000000, 1.406249999999997780 ) ) ;
#214 = DIRECTION ( 'NONE',  ( 1.000000000000000000, 0.000000000000000000, -4.263529280434548971E-15 ) ) ;
#215 = FACE_OUTER_BOUND ( 'NONE', #155, .T. ) ;
#216 = EDGE_LOOP ( 'NONE', ( #395 ) ) ;
#217 = DIRECTION ( 'NONE',  ( 1.000000000000000000, 0.000000000000000000, -4.263529280434548971E-15 ) ) ;
#218 = ORIENTED_EDGE ( 'NONE', *, *, #147, .F. ) ;
#219 = EDGE_LOOP ( 'NONE', ( #246 ) ) ;
#220 = CARTESIAN_POINT ( 'NONE',  ( 3.200000000000257305, 0.000000000000000000, 75.00000000000000000 ) ) ;
#221 = DIRECTION ( 'NONE',  ( -3.491481338843133355E-15, 0.000000000000000000, -1.000000000000000000 ) ) ;
#222 = DIRECTION ( 'NONE',  ( 1.000000000000000000, 0.000000000000000000, -3.063529317398337552E-15 ) ) ;
#223 = CARTESIAN_POINT ( 'NONE',  ( 0.000000000000000000, 0.000000000000000000, 0.000000000000000000 ) ) ;
#224 = DIRECTION ( 'NONE',  ( 3.491481338843133355E-15, -0.000000000000000000, 1.000000000000000000 ) ) ;
#225 = APPROVAL_PERSON_ORGANIZATION ( #79, #2, #319 ) ;
#226 = ADVANCED_FACE ( 'NONE', ( #43, #259 ), #232, .T. ) ;
#227 = CARTESIAN_POINT ( 'NONE',  ( 2.265000000000062297, 0.000000000000000000, 18.39999999999999147 ) ) ;
#228 = CYLINDRICAL_SURFACE ( 'NONE', #346, 3.999999999999996447 ) ;
#229 = FACE_OUTER_BOUND ( 'NONE', #66, .T. ) ;
#230 = FACE_BOUND ( 'NONE', #146, .T. ) ;
#231 = DIRECTION ( 'NONE',  ( 3.491481338843133355E-15, -0.000000000000000000, 1.000000000000000000 ) ) ;
#232 = CONICAL_SURFACE ( 'NONE', #272, 2.262679224830326241, 1.047197551196594967 ) ;
#233 = PRODUCT_DEFINITION_SHAPE ( 'NONE', 'NONE',  #350 ) ;
#234 = ORIENTED_EDGE ( 'NONE', *, *, #314, .F. ) ;
#235 = DATE_AND_TIME ( #3, #45 ) ;
#236 = CARTESIAN_POINT ( 'NONE',  ( 2.364023823175020197E-15, 0.000000000000000000, 0.6770833333333281523 ) ) ;
#237 = ORIENTED_EDGE ( 'NONE', *, *, #13, .F. ) ;
#238 = EDGE_CURVE ( 'NONE', #309, #309, #169, .T. ) ;
#239 = ORIENTED_EDGE ( 'NONE', *, *, #302, .F. ) ;
#240 = AXIS2_PLACEMENT_3D ( 'NONE', #266, #375, #222 ) ;
#241 = APPROVAL_DATE_TIME ( #324, #83 ) ;
#242 = ORIENTED_EDGE ( 'NONE', *, *, #147, .T. ) ;
#243 = PERSON_AND_ORGANIZATION_ROLE ( 'creator' ) ;
#244 = DIRECTION ( 'NONE',  ( 3.491481338843133355E-15, -0.000000000000000000, 1.000000000000000000 ) ) ;
#245 = CALENDAR_DATE ( 2023, 27, 9 ) ;
#246 = ORIENTED_EDGE ( 'NONE', *, *, #270, .F. ) ;
#247 = AXIS2_PLACEMENT_3D ( 'NONE', #38, #67, #263 ) ;
#248 = AXIS2_PLACEMENT_3D ( 'NONE', #128, #253, #367 ) ;
#249 = AXIS2_PLACEMENT_3D ( 'NONE', #183, #256, #187 ) ;
#250 = CARTESIAN_POINT ( 'NONE',  ( 4.000000000000087930, 0.000000000000000000, 25.00676064871955973 ) ) ;
#251 = ORGANIZATION ( 'UNSPECIFIED', 'UNSPECIFIED', '' ) ;
#252 = ADVANCED_FACE ( 'NONE', ( #68, #34 ), #162, .T. ) ;
#253 = DIRECTION ( 'NONE',  ( 3.491481338843133355E-15, -0.000000000000000000, 1.000000000000000000 ) ) ;
#254 = DIRECTION ( 'NONE',  ( 1.000000000000000000, 0.000000000000000000, -3.491481338843133355E-15 ) ) ;
#255 = EDGE_CURVE ( 'NONE', #127, #127, #46, .T. ) ;
#256 = DIRECTION ( 'NONE',  ( 3.491481338843133355E-15, -0.000000000000000000, 1.000000000000000000 ) ) ;
#257 = CARTESIAN_POINT ( 'NONE',  ( 2.262679224830326241, 0.000000000000000000, -7.900102289283130843E-15 ) ) ;
#258 = DIRECTION ( 'NONE',  ( 3.491481338843133355E-15, -0.000000000000000000, 1.000000000000000000 ) ) ;
#259 = FACE_BOUND ( 'NONE', #24, .T. ) ;
#260 = LOCAL_TIME ( 10, 29, 56.00000000000000000, #174 ) ;
#261 = CC_DESIGN_PERSON_AND_ORGANIZATION_ASSIGNMENT ( #383, #298, ( #352 ) ) ;
#262 = VERTEX_POINT ( 'NONE', #220 ) ;
#263 = DIRECTION ( 'NONE',  ( -1.000000000000000000, 0.000000000000000000, 3.491481338843133355E-15 ) ) ;
#264 = DIRECTION ( 'NONE',  ( 1.000000000000000000, 0.000000000000000000, -5.478119912616700510E-15 ) ) ;
#265 = FACE_BOUND ( 'NONE', #148, .T. ) ;
#266 = CARTESIAN_POINT ( 'NONE',  ( 6.424325663471365374E-14, 0.000000000000000000, 18.39999999999999858 ) ) ;
#267 = ADVANCED_FACE ( 'NONE', ( #14, #90 ), #211, .T. ) ;
#268 = CARTESIAN_POINT ( 'NONE',  ( 8.731063814992120487E-14, 0.000000000000000000, 25.00676064871957394 ) ) ;
#269 = CONICAL_SURFACE ( 'NONE', #145, 2.299074173710928370, 0.2617993877991429130 ) ;
#270 = EDGE_CURVE ( 'NONE', #104, #104, #393, .T. ) ;
#271 = DIRECTION ( 'NONE',  ( -3.491481338843133355E-15, 0.000000000000000000, -1.000000000000000000 ) ) ;
#272 = AXIS2_PLACEMENT_3D ( 'NONE', #294, #167, #188 ) ;
#273 = DATE_AND_TIME ( #178, #143 ) ;
#274 = ADVANCED_FACE ( 'NONE', ( #116, #75 ), #293, .T. ) ;
#275 = ORIENTED_EDGE ( 'NONE', *, *, #196, .T. ) ;
#276 = AXIS2_PLACEMENT_3D ( 'NONE', #381, #194, #110 ) ;
#277 = CALENDAR_DATE ( 2023, 27, 9 ) ;
#278 = PERSON_AND_ORGANIZATION_ROLE ( 'design_supplier' ) ;
#279 = ORIENTED_EDGE ( 'NONE', *, *, #13, .T. ) ;
#280 = PRODUCT_RELATED_PRODUCT_CATEGORY ( 'detail', '', ( #352 ) ) ;
#281 = VERTEX_POINT ( 'NONE', #100 ) ;
#282 = FACE_OUTER_BOUND ( 'NONE', #303, .T. ) ;
#283 = ORIENTED_EDGE ( 'NONE', *, *, #238, .F. ) ;
#284 = VERTEX_POINT ( 'NONE', #250 ) ;
#285 = DIRECTION ( 'NONE',  ( 1.000000000000000000, 0.000000000000000000, -3.469446951953617344E-15 ) ) ;
#286 = EDGE_CURVE ( 'NONE', #284, #284, #189, .T. ) ;
#287 = DIRECTION ( 'NONE',  ( 3.491481338843133355E-15, -0.000000000000000000, 1.000000000000000000 ) ) ;
#288 = VERTEX_POINT ( 'NONE', #134 ) ;
#289 = DIRECTION ( 'NONE',  ( 1.000000000000000000, 0.000000000000000000, -3.464117540353071286E-15 ) ) ;
#290 = CC_DESIGN_APPROVAL ( #370, ( #295 ) ) ;
#291 = DIRECTION ( 'NONE',  ( 1.000000000000000000, 0.000000000000000000, -3.491481338843133355E-15 ) ) ;
#292 = DIRECTION ( 'NONE',  ( -1.000000000000000000, 0.000000000000000000, 3.469446951953619316E-15 ) ) ;
#293 = CONICAL_SURFACE ( 'NONE', #114, 3.254999999999999893, 1.047197551196590526 ) ;
#294 = CARTESIAN_POINT ( 'NONE',  ( 0.000000000000000000, 0.000000000000000000, 0.000000000000000000 ) ) ;
#295 = SECURITY_CLASSIFICATION ( '', '', #207 ) ;
#296 = AXIS2_PLACEMENT_3D ( 'NONE', #315, #371, #135 ) ;
#297 = DESIGN_CONTEXT ( 'detailed design', #384, 'design' ) ;
#298 = PERSON_AND_ORGANIZATION_ROLE ( 'design_owner' ) ;
#299 = PERSON_AND_ORGANIZATION ( #355, #251 ) ;
#300 = EDGE_LOOP ( 'NONE', ( #361 ) ) ;
#301 = PERSON_AND_ORGANIZATION ( #355, #251 ) ;
#302 = EDGE_CURVE ( 'NONE', #30, #30, #380, .T. ) ;
#303 = EDGE_LOOP ( 'NONE', ( #218 ) ) ;
#304 = DIRECTION ( 'NONE',  ( 3.491481338843133355E-15, -0.000000000000000000, 1.000000000000000000 ) ) ;
#305 = AXIS2_PLACEMENT_3D ( 'NONE', #387, #124, #214 ) ;
#306 = DIRECTION ( 'NONE',  ( 3.491481338843133355E-15, -0.000000000000000000, 1.000000000000000000 ) ) ;
#307 = CC_DESIGN_PERSON_AND_ORGANIZATION_ASSIGNMENT ( #327, #278, ( #357 ) ) ;
#308 = ORIENTED_EDGE ( 'NONE', *, *, #238, .T. ) ;
#309 = VERTEX_POINT ( 'NONE', #227 ) ;
#310 = DIRECTION ( 'NONE',  ( -3.491481338843133355E-15, 0.000000000000000000, -1.000000000000000000 ) ) ;
#311 = CONICAL_SURFACE ( 'NONE', #202, 3.999999999999994227, 0.7853981633974418397 ) ;
#312 = CARTESIAN_POINT ( 'NONE',  ( 6.364679523932772170E-15, 0.000000000000000000, 1.822916666666660301 ) ) ;
#313 = VERTEX_POINT ( 'NONE', #161 ) ;
#314 = EDGE_CURVE ( 'NONE', #262, #262, #51, .T. ) ;
#315 = CARTESIAN_POINT ( 'NONE',  ( 6.728375496728940835E-15, 0.000000000000000000, 1.927083333333329263 ) ) ;
#316 = CARTESIAN_POINT ( 'NONE',  ( 2.618611004132350143E-13, 0.000000000000000000, 75.00000000000000000 ) ) ;
#317 = CARTESIAN_POINT ( 'NONE',  ( 2.000327850378900441E-15, 0.000000000000000000, 0.5729166666666729579 ) ) ;
#318 = CARTESIAN_POINT ( 'NONE',  ( 6.728375496728940835E-15, 0.000000000000000000, 1.927083333333329263 ) ) ;
#319 = APPROVAL_ROLE ( '' ) ;
#320 = ORIENTED_EDGE ( 'NONE', *, *, #196, .F. ) ;
#321 = AXIS2_PLACEMENT_3D ( 'NONE', #236, #47, #82 ) ;
#322 = CARTESIAN_POINT ( 'NONE',  ( 2.364023823175020197E-15, 0.000000000000000000, 0.6770833333333281523 ) ) ;
#323 = PERSON_AND_ORGANIZATION_ROLE ( 'creator' ) ;
#324 = DATE_AND_TIME ( #277, #260 ) ;
#325 = ORIENTED_EDGE ( 'NONE', *, *, #255, .T. ) ;
#326 = CIRCLE ( 'NONE', #85, 3.999999999999994227 ) ;
#327 = PERSON_AND_ORGANIZATION ( #355, #251 ) ;
#328 = EDGE_LOOP ( 'NONE', ( #325 ) ) ;
#329 = FACE_OUTER_BOUND ( 'NONE', #112, .T. ) ;
#330 = COORDINATED_UNIVERSAL_TIME_OFFSET ( 1, 0, .AHEAD. ) ;
#331 = EDGE_LOOP ( 'NONE', ( #93 ) ) ;
#332 = AXIS2_PLACEMENT_3D ( 'NONE', #33, #221, #71 ) ;
#333 = CC_DESIGN_PERSON_AND_ORGANIZATION_ASSIGNMENT ( #154, #323, ( #357 ) ) ;
#334 = FACE_OUTER_BOUND ( 'NONE', #335, .T. ) ;
#335 = EDGE_LOOP ( 'NONE', ( #25 ) ) ;
#336 = ORIENTED_EDGE ( 'NONE', *, *, #111, .F. ) ;
#337 =( NAMED_UNIT ( * ) PLANE_ANGLE_UNIT ( ) SI_UNIT ( $, .RADIAN. ) );
#338 = AXIS2_PLACEMENT_3D ( 'NONE', #126, #244, #181 ) ;
#339 = AXIS2_PLACEMENT_3D ( 'NONE', #12, #107, #343 ) ;
#340 = FACE_OUTER_BOUND ( 'NONE', #199, .T. ) ;
#341 = CARTESIAN_POINT ( 'NONE',  ( 2.590679153421605076E-13, 0.000000000000000000, 74.20000000000000284 ) ) ;
#342 = CARTESIAN_POINT ( 'NONE',  ( 2.533312163512971615, 0.000000000000000000, 2.499999999999993339 ) ) ;
#343 = DIRECTION ( 'NONE',  ( 1.000000000000000000, 0.000000000000000000, -3.446470482073126542E-15 ) ) ;
#344 = ORIENTED_EDGE ( 'NONE', *, *, #168, .F. ) ;
#345 = PLANE ( 'NONE',  #249 ) ;
#346 = AXIS2_PLACEMENT_3D ( 'NONE', #316, #164, #285 ) ;
#347 = FACE_OUTER_BOUND ( 'NONE', #118, .T. ) ;
#348 = AXIS2_PLACEMENT_3D ( 'NONE', #312, #224, #289 ) ;
#349 = DIRECTION ( 'NONE',  ( 1.000000000000000000, 0.000000000000000000, -3.469446951953614189E-15 ) ) ;
#350 = PRODUCT_DEFINITION ( 'UNKNOWN', '', #357, #297 ) ;
#351 = APPLICATION_PROTOCOL_DEFINITION ( 'international standard', 'config_control_design', 1994, #384 ) ;
#352 = PRODUCT ( '960466', '960466', '', ( #106 ) ) ;
#353 = EDGE_CURVE ( 'NONE', #70, #70, #386, .T. ) ;
#354 = CIRCLE ( 'NONE', #365, 2.299074173710928370 ) ;
#355 = PERSON ( 'UNSPECIFIED', 'UNSPECIFIED', 'UNSPECIFIED', ('UNSPECIFIED'), ('UNSPECIFIED'), ('UNSPECIFIED') ) ;
#356 = EDGE_LOOP ( 'NONE', ( #95 ) ) ;
#357 = PRODUCT_DEFINITION_FORMATION_WITH_SPECIFIED_SOURCE ( 'ANY', '', #352, .NOT_KNOWN. ) ;
#358 = CLOSED_SHELL ( 'NONE', ( #108, #226, #388, #208, #23, #50, #267, #274, #252, #77, #18, #378, #113, #80, #171, #186 ) ) ;
#359 = DATE_TIME_ROLE ( 'classification_date' ) ;
#360 = PERSON_AND_ORGANIZATION ( #355, #251 ) ;
#361 = ORIENTED_EDGE ( 'NONE', *, *, #286, .T. ) ;
#362 = AXIS2_PLACEMENT_3D ( 'NONE', #177, #304, #26 ) ;
#363 = APPROVAL_DATE_TIME ( #212, #370 ) ;
#364 = EDGE_LOOP ( 'NONE', ( #234 ) ) ;
#365 = AXIS2_PLACEMENT_3D ( 'NONE', #69, #258, #192 ) ;
#366 =( NAMED_UNIT ( * ) SI_UNIT ( $, .STERADIAN. ) SOLID_ANGLE_UNIT ( ) );
#367 = DIRECTION ( 'NONE',  ( 1.000000000000000000, 0.000000000000000000, -3.509420569020073468E-15 ) ) ;
#368 = CARTESIAN_POINT ( 'NONE',  ( 6.424325663471365374E-14, 0.000000000000000000, 18.39999999999999858 ) ) ;
#369 = PLANE ( 'NONE',  #332 ) ;
#370 = APPROVAL ( #88, 'UNSPECIFIED' ) ;
#371 = DIRECTION ( 'NONE',  ( 3.491481338843133355E-15, -0.000000000000000000, 1.000000000000000000 ) ) ;
#372 = CC_DESIGN_APPROVAL ( #2, ( #350 ) ) ;
#373 = CARTESIAN_POINT ( 'NONE',  ( 2.533312163512971615, 0.000000000000000000, 2.343749999999996891 ) ) ;
#374 = FACE_OUTER_BOUND ( 'NONE', #328, .T. ) ;
#375 = DIRECTION ( 'NONE',  ( 3.491481338843133355E-15, -0.000000000000000000, 1.000000000000000000 ) ) ;
#376 = CARTESIAN_POINT ( 'NONE',  ( 3.255000000000002114, 0.000000000000000000, 0.5729166666666615226 ) ) ;
#377 = DIRECTION ( 'NONE',  ( 1.000000000000000000, 0.000000000000000000, -3.423824945385438213E-15 ) ) ;
#378 = ADVANCED_FACE ( 'NONE', ( #64, #340 ), #41, .F. ) ;
#379 = DIRECTION ( 'NONE',  ( 1.000000000000000000, 0.000000000000000000, -3.018125288540465781E-15 ) ) ;
#380 = CIRCLE ( 'NONE', #7, 2.533312163512962734 ) ;
#381 = CARTESIAN_POINT ( 'NONE',  ( 2.618611004132350648E-13, 0.000000000000000000, 75.00000000000001421 ) ) ;
#382 = EDGE_LOOP ( 'NONE', ( #320 ) ) ;
#383 = PERSON_AND_ORGANIZATION ( #355, #251 ) ;
#384 = APPLICATION_CONTEXT ( 'configuration controlled 3d designs of mechanical parts and assemblies' ) ;
#385 = AXIS2_PLACEMENT_3D ( 'NONE', #213, #306, #6 ) ;
#386 = CIRCLE ( 'NONE', #109, 3.254999999999999893 ) ;
#387 = CARTESIAN_POINT ( 'NONE',  ( 2.618611004132350143E-13, 0.000000000000000000, 75.00000000000000000 ) ) ;
#388 = ADVANCED_FACE ( 'NONE', ( #229, #334 ), #5, .T. ) ;
#389 = CC_DESIGN_DATE_AND_TIME_ASSIGNMENT ( #235, #359, ( #295 ) ) ;
#390 = EDGE_LOOP ( 'NONE', ( #242 ) ) ;
#391 = UNCERTAINTY_MEASURE_WITH_UNIT (LENGTH_MEASURE( 1.000000000000000082E-05 ), #158, 'distance_accuracy_value', 'NONE');
#392 = ORIENTED_EDGE ( 'NONE', *, *, #184, .T. ) ;
#393 = CIRCLE ( 'NONE', #137, 2.533312163512962734 ) ;
#394 = COORDINATED_UNIVERSAL_TIME_OFFSET ( 1, 0, .AHEAD. ) ;
#395 = ORIENTED_EDGE ( 'NONE', *, *, #302, .T. ) ;
ENDSEC;
END-ISO-10303-21;
