ISO-10303-21;
HEADER;
FILE_DESCRIPTION (( 'STEP AP203' ),
    '1' );
FILE_NAME ('960464.step',
    '2023-09-27T08:29:55',
    ( '' ),
    ( '' ),
    'SwSTEP 2.0',
    'SolidWorks 2022',
    '' );
FILE_SCHEMA (( 'CONFIG_CONTROL_DESIGN' ));
ENDSEC;

DATA;
#1 = DIRECTION ( 'NONE',  ( 3.491481338843133355E-15, -0.000000000000000000, 1.000000000000000000 ) ) ;
#2 = AXIS2_PLACEMENT_3D ( 'NONE', #274, #348, #314 ) ;
#3 = EDGE_LOOP ( 'NONE', ( #176 ) ) ;
#4 = ORIENTED_EDGE ( 'NONE', *, *, #58, .T. ) ;
#5 = DIRECTION ( 'NONE',  ( 1.000000000000000000, 0.000000000000000000, -3.480155121558409533E-15 ) ) ;
#6 = ADVANCED_FACE ( 'NONE', ( #315, #110 ), #60, .F. ) ;
#7 = PRODUCT ( '960464', '960464', '', ( #369 ) ) ;
#8 = ORIENTED_EDGE ( 'NONE', *, *, #219, .T. ) ;
#9 = CIRCLE ( 'NONE', #234, 1.389999999999999902 ) ;
#10 = AXIS2_PLACEMENT_3D ( 'NONE', #272, #336, #61 ) ;
#11 = APPLICATION_PROTOCOL_DEFINITION ( 'international standard', 'config_control_design', 1994, #292 ) ;
#12 = ORIENTED_EDGE ( 'NONE', *, *, #311, .F. ) ;
#13 = DIRECTION ( 'NONE',  ( 1.000000000000000000, 0.000000000000000000, -3.744007502108220837E-15 ) ) ;
#14 = ORIENTED_EDGE ( 'NONE', *, *, #186, .T. ) ;
#15 = CARTESIAN_POINT ( 'NONE',  ( 1.990144363140586139E-13, 0.000000000000000000, 57.00000000000000000 ) ) ;
#16 = PERSON_AND_ORGANIZATION_ROLE ( 'design_supplier' ) ;
#17 = CARTESIAN_POINT ( 'NONE',  ( 1.990144363140586139E-13, 0.000000000000000000, 57.00000000000000000 ) ) ;
#18 = VERTEX_POINT ( 'NONE', #253 ) ;
#19 = AXIS2_PLACEMENT_3D ( 'NONE', #226, #385, #359 ) ;
#20 = ORIENTED_EDGE ( 'NONE', *, *, #311, .T. ) ;
#21 = VERTEX_POINT ( 'NONE', #84 ) ;
#22 = CARTESIAN_POINT ( 'NONE',  ( 4.015203539669602727E-14, 0.000000000000000000, 11.50000000000000000 ) ) ;
#23 = CARTESIAN_POINT ( 'NONE',  ( 2.025000000000004352, 0.000000000000000000, 1.233333333333329174 ) ) ;
#24 = CARTESIAN_POINT ( 'NONE',  ( 4.105569726280866572E-14, 0.000000000000000000, 11.75881904510251630 ) ) ;
#25 = VERTEX_POINT ( 'NONE', #76 ) ;
#26 = AXIS2_PLACEMENT_3D ( 'NONE', #288, #223, #353 ) ;
#27 = FACE_OUTER_BOUND ( 'NONE', #205, .T. ) ;
#28 = PLANE ( 'NONE',  #119 ) ;
#29 = ADVANCED_FACE ( 'NONE', ( #285, #41 ), #171, .T. ) ;
#30 = AXIS2_PLACEMENT_3D ( 'NONE', #190, #131, #377 ) ;
#31 = DESIGN_CONTEXT ( 'detailed design', #292, 'design' ) ;
#32 = EDGE_LOOP ( 'NONE', ( #164 ) ) ;
#33 = APPROVAL_DATE_TIME ( #321, #255 ) ;
#34 = CIRCLE ( 'NONE', #56, 1.424074173710928370 ) ;
#35 =( LENGTH_UNIT ( ) NAMED_UNIT ( * ) SI_UNIT ( .MILLI., .METRE. ) );
#36 = AXIS2_PLACEMENT_3D ( 'NONE', #172, #320, #45 ) ;
#37 = PERSON_AND_ORGANIZATION_ROLE ( 'creator' ) ;
#38 = CARTESIAN_POINT ( 'NONE',  ( 1.512975246832027346E-15, 0.000000000000000000, 0.4333333333333341808 ) ) ;
#39 = ORIENTED_EDGE ( 'NONE', *, *, #178, .F. ) ;
#40 = DIRECTION ( 'NONE',  ( 3.491481338843133355E-15, -0.000000000000000000, 1.000000000000000000 ) ) ;
#41 = FACE_OUTER_BOUND ( 'NONE', #329, .T. ) ;
#42 = DIRECTION ( 'NONE',  ( -1.000000000000000000, 0.000000000000000000, 3.491481338843133355E-15 ) ) ;
#43 = PERSON_AND_ORGANIZATION ( #330, #124 ) ;
#44 = ORIENTED_EDGE ( 'NONE', *, *, #217, .T. ) ;
#45 = DIRECTION ( 'NONE',  ( -1.000000000000000000, 0.000000000000000000, 4.625929269271493211E-15 ) ) ;
#46 = EDGE_CURVE ( 'NONE', #227, #227, #133, .T. ) ;
#47 = EDGE_LOOP ( 'NONE', ( #96 ) ) ;
#48 = DIRECTION ( 'NONE',  ( 3.491481338843133355E-15, -0.000000000000000000, 1.000000000000000000 ) ) ;
#49 = AXIS2_PLACEMENT_3D ( 'NONE', #344, #63, #103 ) ;
#50 = DATE_AND_TIME ( #140, #297 ) ;
#51 = DIRECTION ( 'NONE',  ( 1.000000000000000000, 0.000000000000000000, -3.491481338843133355E-15 ) ) ;
#52 = VERTEX_POINT ( 'NONE', #263 ) ;
#53 = DIRECTION ( 'NONE',  ( 3.491481338843133355E-15, -0.000000000000000000, 1.000000000000000000 ) ) ;
#54 = DIRECTION ( 'NONE',  ( 1.000000000000000000, 0.000000000000000000, -3.468071299249311019E-15 ) ) ;
#55 = DIRECTION ( 'NONE',  ( 3.491481338843133355E-15, -0.000000000000000000, 1.000000000000000000 ) ) ;
#56 = AXIS2_PLACEMENT_3D ( 'NONE', #24, #290, #381 ) ;
#57 = DIRECTION ( 'NONE',  ( 3.491481338843133355E-15, -0.000000000000000000, 1.000000000000000000 ) ) ;
#58 = EDGE_CURVE ( 'NONE', #21, #21, #9, .T. ) ;
#59 = ADVANCED_BREP_SHAPE_REPRESENTATION ( '960464', ( #192, #10 ), #93 ) ;
#60 = TOROIDAL_SURFACE ( 'NONE', #210, 2.389999999999998348, 0.9999999999999997780 ) ;
#61 = DIRECTION ( 'NONE',  ( 1.000000000000000000, 0.000000000000000000, 0.000000000000000000 ) ) ;
#62 = EDGE_LOOP ( 'NONE', ( #39 ) ) ;
#63 = DIRECTION ( 'NONE',  ( 3.491481338843133355E-15, -0.000000000000000000, 1.000000000000000000 ) ) ;
#64 = CARTESIAN_POINT ( 'NONE',  ( 1.990144363140586139E-13, 2.399999999999996803, 57.00000000000000000 ) ) ;
#65 = CYLINDRICAL_SURFACE ( 'NONE', #67, 1.563119784648296928 ) ;
#66 = ORIENTED_EDGE ( 'NONE', *, *, #237, .T. ) ;
#67 = AXIS2_PLACEMENT_3D ( 'NONE', #280, #90, #316 ) ;
#68 = DIRECTION ( 'NONE',  ( -3.491481338843133355E-15, 0.000000000000000000, -1.000000000000000000 ) ) ;
#69 = AXIS2_PLACEMENT_3D ( 'NONE', #332, #48, #139 ) ;
#70 = SECURITY_CLASSIFICATION_LEVEL ( 'unclassified' ) ;
#71 = ADVANCED_FACE ( 'NONE', ( #379, #293 ), #101, .T. ) ;
#72 = DIRECTION ( 'NONE',  ( 1.000000000000000000, 0.000000000000000000, -4.625929269271493211E-15 ) ) ;
#73 = FACE_BOUND ( 'NONE', #388, .T. ) ;
#74 = PERSON_AND_ORGANIZATION ( #330, #124 ) ;
#75 = FACE_BOUND ( 'NONE', #345, .T. ) ;
#76 = CARTESIAN_POINT ( 'NONE',  ( 3.000000000000192291, 0.000000000000000000, 56.39999999999998437 ) ) ;
#77 = APPROVAL_ROLE ( '' ) ;
#78 = DIRECTION ( 'NONE',  ( 1.000000000000000000, 0.000000000000000000, -3.533695969582385070E-15 ) ) ;
#79 = CC_DESIGN_PERSON_AND_ORGANIZATION_ASSIGNMENT ( #74, #378, ( #7 ) ) ;
#80 = VERTEX_POINT ( 'NONE', #386 ) ;
#81 = CIRCLE ( 'NONE', #301, 2.024999999999999911 ) ;
#82 = CC_DESIGN_APPROVAL ( #255, ( #333 ) ) ;
#83 = EDGE_LOOP ( 'NONE', ( #88 ) ) ;
#84 = CARTESIAN_POINT ( 'NONE',  ( 1.390000000000005675, 0.000000000000000000, 1.599999999999992539 ) ) ;
#85 = CARTESIAN_POINT ( 'NONE',  ( 1.563119784648302257, 0.000000000000000000, 1.599999999999991873 ) ) ;
#86 = SECURITY_CLASSIFICATION ( '', '', #70 ) ;
#87 = AXIS2_PLACEMENT_3D ( 'NONE', #38, #191, #5 ) ;
#88 = ORIENTED_EDGE ( 'NONE', *, *, #186, .F. ) ;
#89 = DATE_AND_TIME ( #324, #268 ) ;
#90 = DIRECTION ( 'NONE',  ( 3.491481338843133355E-15, -0.000000000000000000, 1.000000000000000000 ) ) ;
#91 = AXIS2_PLACEMENT_3D ( 'NONE', #105, #356, #72 ) ;
#92 =( NAMED_UNIT ( * ) PLANE_ANGLE_UNIT ( ) SI_UNIT ( $, .RADIAN. ) );
#93 =( GEOMETRIC_REPRESENTATION_CONTEXT ( 3 ) GLOBAL_UNCERTAINTY_ASSIGNED_CONTEXT ( ( #342 ) ) GLOBAL_UNIT_ASSIGNED_CONTEXT ( ( #35, #92, #185 ) ) REPRESENTATION_CONTEXT ( 'NONE', 'WORKASPACE' ) );
#94 = ORIENTED_EDGE ( 'NONE', *, *, #246, .T. ) ;
#95 = CARTESIAN_POINT ( 'NONE',  ( 0.000000000000000000, 0.000000000000000000, 0.000000000000000000 ) ) ;
#96 = ORIENTED_EDGE ( 'NONE', *, *, #219, .F. ) ;
#97 = FACE_OUTER_BOUND ( 'NONE', #47, .T. ) ;
#98 = COORDINATED_UNIVERSAL_TIME_OFFSET ( 1, 0, .AHEAD. ) ;
#99 = EDGE_CURVE ( 'NONE', #25, #25, #267, .T. ) ;
#100 = AXIS2_PLACEMENT_3D ( 'NONE', #362, #57, #54 ) ;
#101 = CYLINDRICAL_SURFACE ( 'NONE', #26, 2.024999999999999911 ) ;
#102 = AXIS2_PLACEMENT_3D ( 'NONE', #380, #174, #233 ) ;
#103 = DIRECTION ( 'NONE',  ( 1.000000000000000000, 0.000000000000000000, -3.469446951953614189E-15 ) ) ;
#104 = EDGE_CURVE ( 'NONE', #109, #109, #34, .T. ) ;
#105 = CARTESIAN_POINT ( 'NONE',  ( 1.969195475107527212E-13, 0.000000000000000000, 56.39999999999999858 ) ) ;
#106 = FACE_OUTER_BOUND ( 'NONE', #279, .T. ) ;
#107 = APPROVAL_STATUS ( 'not_yet_approved' ) ;
#108 = CARTESIAN_POINT ( 'NONE',  ( 4.306160317906541130E-15, 0.000000000000000000, 1.233333333333336279 ) ) ;
#109 = VERTEX_POINT ( 'NONE', #136 ) ;
#110 = FACE_OUTER_BOUND ( 'NONE', #238, .T. ) ;
#111 = ADVANCED_FACE ( 'NONE', ( #75, #143 ), #112, .T. ) ;
#112 = CONICAL_SURFACE ( 'NONE', #337, 2.024999999999999911, 1.047197551196602738 ) ;
#113 = CONICAL_SURFACE ( 'NONE', #365, 1.389914703891409031, 1.047197551196598075 ) ;
#114 = EDGE_LOOP ( 'NONE', ( #347 ) ) ;
#115 = DIRECTION ( 'NONE',  ( 3.491481338843133355E-15, -0.000000000000000000, 1.000000000000000000 ) ) ;
#116 = DIRECTION ( 'NONE',  ( 1.000000000000000000, 0.000000000000000000, -2.891205793294682172E-15 ) ) ;
#117 = CARTESIAN_POINT ( 'NONE',  ( 1.389914703891409031, 0.000000000000000000, -4.852861251220533782E-15 ) ) ;
#118 = DIRECTION ( 'NONE',  ( 3.491481338843133355E-15, -0.000000000000000000, 1.000000000000000000 ) ) ;
#119 = AXIS2_PLACEMENT_3D ( 'NONE', #303, #1, #231 ) ;
#120 = ORIENTED_EDGE ( 'NONE', *, *, #175, .T. ) ;
#121 = EDGE_LOOP ( 'NONE', ( #216 ) ) ;
#122 = FACE_OUTER_BOUND ( 'NONE', #373, .T. ) ;
#123 = ORIENTED_EDGE ( 'NONE', *, *, #278, .F. ) ;
#124 = ORGANIZATION ( 'UNSPECIFIED', 'UNSPECIFIED', '' ) ;
#125 = EDGE_LOOP ( 'NONE', ( #158 ) ) ;
#126 = FACE_BOUND ( 'NONE', #83, .T. ) ;
#127 = ORIENTED_EDGE ( 'NONE', *, *, #104, .T. ) ;
#128 = FACE_OUTER_BOUND ( 'NONE', #121, .T. ) ;
#129 = PERSON_AND_ORGANIZATION ( #330, #124 ) ;
#130 = PERSON_AND_ORGANIZATION ( #330, #124 ) ;
#131 = DIRECTION ( 'NONE',  ( 3.491481338843133355E-15, -0.000000000000000000, 1.000000000000000000 ) ) ;
#132 = APPROVAL_ROLE ( '' ) ;
#133 = CIRCLE ( 'NONE', #19, 2.024999999999999911 ) ;
#134 = DIRECTION ( 'NONE',  ( 3.491481338843133355E-15, -0.000000000000000000, 1.000000000000000000 ) ) ;
#135 = AXIS2_PLACEMENT_3D ( 'NONE', #323, #115, #357 ) ;
#136 = CARTESIAN_POINT ( 'NONE',  ( 1.424074173710969449, 0.000000000000000000, 11.75881904510251097 ) ) ;
#137 = PERSON_AND_ORGANIZATION ( #330, #124 ) ;
#138 = ORIENTED_EDGE ( 'NONE', *, *, #104, .F. ) ;
#139 = DIRECTION ( 'NONE',  ( 1.000000000000000000, 0.000000000000000000, -3.654423711911800510E-15 ) ) ;
#140 = CALENDAR_DATE ( 2023, 27, 9 ) ;
#141 = EDGE_LOOP ( 'NONE', ( #282 ) ) ;
#142 = FACE_BOUND ( 'NONE', #187, .T. ) ;
#143 = FACE_OUTER_BOUND ( 'NONE', #3, .T. ) ;
#144 = VERTEX_POINT ( 'NONE', #23 ) ;
#145 = EDGE_CURVE ( 'NONE', #144, #144, #351, .T. ) ;
#146 = FACE_OUTER_BOUND ( 'NONE', #240, .T. ) ;
#147 = CYLINDRICAL_SURFACE ( 'NONE', #364, 2.999999999999997335 ) ;
#148 = AXIS2_PLACEMENT_3D ( 'NONE', #354, #224, #13 ) ;
#149 = CC_DESIGN_PERSON_AND_ORGANIZATION_ASSIGNMENT ( #383, #151, ( #86 ) ) ;
#150 = CC_DESIGN_APPROVAL ( #155, ( #86 ) ) ;
#151 = PERSON_AND_ORGANIZATION_ROLE ( 'classification_officer' ) ;
#152 = DIRECTION ( 'NONE',  ( 3.491481338843133355E-15, -0.000000000000000000, 1.000000000000000000 ) ) ;
#153 = ADVANCED_FACE ( 'NONE', ( #266 ), #28, .F. ) ;
#154 = PRODUCT_DEFINITION_SHAPE ( 'NONE', 'NONE',  #271 ) ;
#155 = APPROVAL ( #254, 'UNSPECIFIED' ) ;
#156 = EDGE_LOOP ( 'NONE', ( #12 ) ) ;
#157 = PLANE ( 'NONE',  #296 ) ;
#158 = ORIENTED_EDGE ( 'NONE', *, *, #99, .F. ) ;
#159 = FACE_OUTER_BOUND ( 'NONE', #304, .T. ) ;
#160 = AXIS2_PLACEMENT_3D ( 'NONE', #108, #228, #78 ) ;
#161 = LOCAL_TIME ( 10, 29, 55.00000000000000000, #247 ) ;
#162 = EDGE_LOOP ( 'NONE', ( #138 ) ) ;
#163 = DATE_AND_TIME ( #166, #338 ) ;
#164 = ORIENTED_EDGE ( 'NONE', *, *, #278, .T. ) ;
#165 = DIRECTION ( 'NONE',  ( -1.000000000000000000, 0.000000000000000000, 3.480155121558409533E-15 ) ) ;
#166 = CALENDAR_DATE ( 2023, 27, 9 ) ;
#167 = PRODUCT_RELATED_PRODUCT_CATEGORY ( 'detail', '', ( #7 ) ) ;
#168 = CARTESIAN_POINT ( 'NONE',  ( 1.390000000000038760, 0.000000000000000000, 11.49999999999999822 ) ) ;
#169 = PERSON_AND_ORGANIZATION ( #330, #124 ) ;
#170 = AXIS2_PLACEMENT_3D ( 'NONE', #299, #391, #116 ) ;
#171 = CYLINDRICAL_SURFACE ( 'NONE', #276, 1.389999999999999236 ) ;
#172 = CARTESIAN_POINT ( 'NONE',  ( 1.969195475107527212E-13, 0.000000000000000000, 56.39999999999999858 ) ) ;
#173 = DIRECTION ( 'NONE',  ( 1.000000000000000000, 0.000000000000000000, -3.432006876932532217E-15 ) ) ;
#174 = DIRECTION ( 'NONE',  ( -3.491481338843133355E-15, 0.000000000000000000, -1.000000000000000000 ) ) ;
#175 = EDGE_CURVE ( 'NONE', #80, #80, #181, .T. ) ;
#176 = ORIENTED_EDGE ( 'NONE', *, *, #145, .T. ) ;
#177 = FACE_OUTER_BOUND ( 'NONE', #156, .T. ) ;
#178 = EDGE_CURVE ( 'NONE', #202, #202, #343, .T. ) ;
#179 = AXIS2_PLACEMENT_3D ( 'NONE', #244, #68, #165 ) ;
#180 = PLANE ( 'NONE',  #102 ) ;
#181 = CIRCLE ( 'NONE', #100, 1.563119784648296928 ) ;
#182 = FACE_OUTER_BOUND ( 'NONE', #370, .T. ) ;
#183 = ADVANCED_FACE ( 'NONE', ( #334, #182 ), #147, .T. ) ;
#184 = CONICAL_SURFACE ( 'NONE', #69, 1.424074173710928370, 0.2617993877991430240 ) ;
#185 =( NAMED_UNIT ( * ) SI_UNIT ( $, .STERADIAN. ) SOLID_ANGLE_UNIT ( ) );
#186 = EDGE_CURVE ( 'NONE', #229, #229, #251, .T. ) ;
#187 = EDGE_LOOP ( 'NONE', ( #120 ) ) ;
#188 = ADVANCED_FACE ( 'NONE', ( #126, #122 ), #350, .T. ) ;
#189 = APPLICATION_PROTOCOL_DEFINITION ( 'international standard', 'config_control_design', 1994, #392 ) ;
#190 = CARTESIAN_POINT ( 'NONE',  ( 5.237222008264704766E-15, 0.000000000000000000, 1.500000000000001332 ) ) ;
#191 = DIRECTION ( 'NONE',  ( 3.491481338843133355E-15, -0.000000000000000000, 1.000000000000000000 ) ) ;
#192 = MANIFOLD_SOLID_BREP ( 'Corps-Déplacer/Copier1', #371 ) ;
#193 = ORIENTED_EDGE ( 'NONE', *, *, #99, .T. ) ;
#194 = DIRECTION ( 'NONE',  ( 3.491481338843133355E-15, -0.000000000000000000, 1.000000000000000000 ) ) ;
#195 = CIRCLE ( 'NONE', #49, 3.000000000000000000 ) ;
#196 = ORIENTED_EDGE ( 'NONE', *, *, #58, .F. ) ;
#197 = DIRECTION ( 'NONE',  ( 3.491481338843133355E-15, -0.000000000000000000, 1.000000000000000000 ) ) ;
#198 = COORDINATED_UNIVERSAL_TIME_OFFSET ( 1, 0, .AHEAD. ) ;
#199 = CARTESIAN_POINT ( 'NONE',  ( 1.563119784648298927, 0.000000000000000000, 0.6999999999999938494 ) ) ;
#200 = COORDINATED_UNIVERSAL_TIME_OFFSET ( 1, 0, .AHEAD. ) ;
#201 = CARTESIAN_POINT ( 'NONE',  ( 4.306160317906541130E-15, 0.000000000000000000, 1.233333333333336279 ) ) ;
#202 = VERTEX_POINT ( 'NONE', #393 ) ;
#203 = DATE_AND_TIME ( #317, #211 ) ;
#204 = CIRCLE ( 'NONE', #30, 1.563119784648296928 ) ;
#205 = EDGE_LOOP ( 'NONE', ( #312 ) ) ;
#206 = CONICAL_SURFACE ( 'NONE', #302, 1.563119784648296928, 1.047197551196591414 ) ;
#207 = DIRECTION ( 'NONE',  ( 1.000000000000000000, 0.000000000000000000, -3.491481338843132961E-15 ) ) ;
#208 = VERTEX_POINT ( 'NONE', #117 ) ;
#209 = VERTEX_POINT ( 'NONE', #168 ) ;
#210 = AXIS2_PLACEMENT_3D ( 'NONE', #22, #53, #51 ) ;
#211 = LOCAL_TIME ( 10, 29, 55.00000000000000000, #98 ) ;
#212 = APPROVAL ( #107, 'UNSPECIFIED' ) ;
#213 = CIRCLE ( 'NONE', #241, 1.389914703891409031 ) ;
#214 = APPROVAL_DATE_TIME ( #203, #212 ) ;
#215 = CYLINDRICAL_SURFACE ( 'NONE', #261, 1.563119784648296928 ) ;
#216 = ORIENTED_EDGE ( 'NONE', *, *, #178, .T. ) ;
#217 = EDGE_CURVE ( 'NONE', #208, #208, #213, .T. ) ;
#218 = ORIENTED_EDGE ( 'NONE', *, *, #300, .T. ) ;
#219 = EDGE_CURVE ( 'NONE', #230, #230, #265, .T. ) ;
#220 = CC_DESIGN_PERSON_AND_ORGANIZATION_ASSIGNMENT ( #137, #16, ( #333 ) ) ;
#221 = CALENDAR_DATE ( 2023, 27, 9 ) ;
#222 = CIRCLE ( 'NONE', #87, 2.024999999999999911 ) ;
#223 = DIRECTION ( 'NONE',  ( 3.491481338843133355E-15, -0.000000000000000000, 1.000000000000000000 ) ) ;
#224 = DIRECTION ( 'NONE',  ( 3.491481338843133355E-15, -0.000000000000000000, 1.000000000000000000 ) ) ;
#225 = ADVANCED_FACE ( 'NONE', ( #283, #239 ), #215, .T. ) ;
#226 = CARTESIAN_POINT ( 'NONE',  ( 1.280209824242486635E-15, 0.000000000000000000, 0.3666666666666679175 ) ) ;
#227 = VERTEX_POINT ( 'NONE', #232 ) ;
#228 = DIRECTION ( 'NONE',  ( 3.491481338843133355E-15, -0.000000000000000000, 1.000000000000000000 ) ) ;
#229 = VERTEX_POINT ( 'NONE', #199 ) ;
#230 = VERTEX_POINT ( 'NONE', #85 ) ;
#231 = DIRECTION ( 'NONE',  ( 1.000000000000000000, 0.000000000000000000, -3.491481338843133355E-15 ) ) ;
#232 = CARTESIAN_POINT ( 'NONE',  ( 2.025000000000001243, 0.000000000000000000, 0.3666666666666608676 ) ) ;
#233 = DIRECTION ( 'NONE',  ( -1.000000000000000000, 0.000000000000000000, 3.491481338843133355E-15 ) ) ;
#234 = AXIS2_PLACEMENT_3D ( 'NONE', #252, #376, #173 ) ;
#235 = CC_DESIGN_APPROVAL ( #212, ( #271 ) ) ;
#236 = ADVANCED_FACE ( 'NONE', ( #97, #349 ), #65, .T. ) ;
#237 = EDGE_CURVE ( 'NONE', #327, #327, #195, .T. ) ;
#238 = EDGE_LOOP ( 'NONE', ( #94 ) ) ;
#239 = FACE_OUTER_BOUND ( 'NONE', #309, .T. ) ;
#240 = EDGE_LOOP ( 'NONE', ( #193 ) ) ;
#241 = AXIS2_PLACEMENT_3D ( 'NONE', #95, #197, #372 ) ;
#242 = APPROVAL_PERSON_ORGANIZATION ( #130, #212, #77 ) ;
#243 = EDGE_LOOP ( 'NONE', ( #127 ) ) ;
#244 = CARTESIAN_POINT ( 'NONE',  ( 1.512975246832027346E-15, 0.000000000000000000, 0.4333333333333341808 ) ) ;
#245 = ORIENTED_EDGE ( 'NONE', *, *, #175, .F. ) ;
#246 = EDGE_CURVE ( 'NONE', #209, #209, #325, .T. ) ;
#247 = COORDINATED_UNIVERSAL_TIME_OFFSET ( 1, 0, .AHEAD. ) ;
#248 = DIRECTION ( 'NONE',  ( 1.000000000000000000, 0.000000000000000000, -4.992010002810958749E-15 ) ) ;
#249 = APPROVAL_ROLE ( '' ) ;
#250 = ADVANCED_FACE ( 'NONE', ( #128 ), #157, .F. ) ;
#251 = CIRCLE ( 'NONE', #387, 1.563119784648296706 ) ;
#252 = CARTESIAN_POINT ( 'NONE',  ( 5.586370142149003902E-15, 0.000000000000000000, 1.599999999999997202 ) ) ;
#253 = CARTESIAN_POINT ( 'NONE',  ( 1.563119784648302035, 0.000000000000000000, 1.499999999999996003 ) ) ;
#254 = APPROVAL_STATUS ( 'not_yet_approved' ) ;
#255 = APPROVAL ( #281, 'UNSPECIFIED' ) ;
#256 = FACE_BOUND ( 'NONE', #62, .T. ) ;
#257 = COORDINATED_UNIVERSAL_TIME_OFFSET ( 1, 0, .AHEAD. ) ;
#258 = CC_DESIGN_PERSON_AND_ORGANIZATION_ASSIGNMENT ( #129, #358, ( #271 ) ) ;
#259 = EDGE_LOOP ( 'NONE', ( #8 ) ) ;
#260 = FACE_OUTER_BOUND ( 'NONE', #259, .T. ) ;
#261 = AXIS2_PLACEMENT_3D ( 'NONE', #15, #152, #368 ) ;
#262 = DIRECTION ( 'NONE',  ( -3.491481338843133355E-15, 0.000000000000000000, -1.000000000000000000 ) ) ;
#263 = CARTESIAN_POINT ( 'NONE',  ( 2.025000000000003908, 0.000000000000000000, 1.166666666666662966 ) ) ;
#264 = CARTESIAN_POINT ( 'NONE',  ( 3.000000000000061728, 0.000000000000000000, 17.64025429777343490 ) ) ;
#265 = CIRCLE ( 'NONE', #2, 1.563119784648296706 ) ;
#266 = FACE_OUTER_BOUND ( 'NONE', #340, .T. ) ;
#267 = CIRCLE ( 'NONE', #91, 2.999999999999995115 ) ;
#268 = LOCAL_TIME ( 10, 29, 55.00000000000000000, #200 ) ;
#269 = APPROVAL_DATE_TIME ( #163, #155 ) ;
#270 = CARTESIAN_POINT ( 'NONE',  ( 4.073394895317000221E-15, 0.000000000000000000, 1.166666666666670071 ) ) ;
#271 = PRODUCT_DEFINITION ( 'UNKNOWN', '', #333, #31 ) ;
#272 = CARTESIAN_POINT ( 'NONE',  ( 0.000000000000000000, 0.000000000000000000, 0.000000000000000000 ) ) ;
#273 = EDGE_LOOP ( 'NONE', ( #20 ) ) ;
#274 = CARTESIAN_POINT ( 'NONE',  ( 5.586370142149003902E-15, 0.000000000000000000, 1.599999999999997202 ) ) ;
#275 = CARTESIAN_POINT ( 'NONE',  ( 2.444036937190190588E-15, 0.000000000000000000, 0.6999999999999992895 ) ) ;
#276 = AXIS2_PLACEMENT_3D ( 'NONE', #17, #134, #248 ) ;
#277 = APPROVAL_PERSON_ORGANIZATION ( #308, #255, #132 ) ;
#278 = EDGE_CURVE ( 'NONE', #18, #18, #204, .T. ) ;
#279 = EDGE_LOOP ( 'NONE', ( #326 ) ) ;
#280 = CARTESIAN_POINT ( 'NONE',  ( 1.990144363140586139E-13, 0.000000000000000000, 57.00000000000000000 ) ) ;
#281 = APPROVAL_STATUS ( 'not_yet_approved' ) ;
#282 = ORIENTED_EDGE ( 'NONE', *, *, #145, .F. ) ;
#283 = FACE_OUTER_BOUND ( 'NONE', #361, .T. ) ;
#284 = SHAPE_DEFINITION_REPRESENTATION ( #154, #59 ) ;
#285 = FACE_OUTER_BOUND ( 'NONE', #114, .T. ) ;
#286 = CYLINDRICAL_SURFACE ( 'NONE', #135, 2.024999999999999911 ) ;
#287 = CC_DESIGN_SECURITY_CLASSIFICATION ( #86, ( #333 ) ) ;
#288 = CARTESIAN_POINT ( 'NONE',  ( 1.990144363140586139E-13, 0.000000000000000000, 57.00000000000000000 ) ) ;
#289 = FACE_BOUND ( 'NONE', #306, .T. ) ;
#290 = DIRECTION ( 'NONE',  ( 3.491481338843133355E-15, -0.000000000000000000, 1.000000000000000000 ) ) ;
#291 = CARTESIAN_POINT ( 'NONE',  ( 0.000000000000000000, 0.000000000000000000, 0.000000000000000000 ) ) ;
#292 = APPLICATION_CONTEXT ( 'configuration controlled 3d designs of mechanical parts and assemblies' ) ;
#293 = FACE_OUTER_BOUND ( 'NONE', #273, .T. ) ;
#294 = DIRECTION ( 'NONE',  ( 3.491481338843133355E-15, -0.000000000000000000, 1.000000000000000000 ) ) ;
#295 = CC_DESIGN_DATE_AND_TIME_ASSIGNMENT ( #89, #341, ( #271 ) ) ;
#296 = AXIS2_PLACEMENT_3D ( 'NONE', #64, #310, #42 ) ;
#297 = LOCAL_TIME ( 10, 29, 55.00000000000000000, #198 ) ;
#298 = FACE_OUTER_BOUND ( 'NONE', #313, .T. ) ;
#299 = CARTESIAN_POINT ( 'NONE',  ( 1.990144363140586139E-13, 0.000000000000000000, 57.00000000000000000 ) ) ;
#300 = EDGE_CURVE ( 'NONE', #331, #331, #222, .T. ) ;
#301 = AXIS2_PLACEMENT_3D ( 'NONE', #270, #40, #374 ) ;
#302 = AXIS2_PLACEMENT_3D ( 'NONE', #363, #55, #382 ) ;
#303 = CARTESIAN_POINT ( 'NONE',  ( -1.122345701187769030E-33, 0.000000000000000000, -3.214525848102189300E-19 ) ) ;
#304 = EDGE_LOOP ( 'NONE', ( #366 ) ) ;
#305 = CC_DESIGN_DATE_AND_TIME_ASSIGNMENT ( #50, #318, ( #86 ) ) ;
#306 = EDGE_LOOP ( 'NONE', ( #196 ) ) ;
#307 = APPROVAL_PERSON_ORGANIZATION ( #43, #155, #249 ) ;
#308 = PERSON_AND_ORGANIZATION ( #330, #124 ) ;
#309 = EDGE_LOOP ( 'NONE', ( #14 ) ) ;
#310 = DIRECTION ( 'NONE',  ( -3.491481338843133355E-15, 0.000000000000000000, -1.000000000000000000 ) ) ;
#311 = EDGE_CURVE ( 'NONE', #52, #52, #81, .T. ) ;
#312 = ORIENTED_EDGE ( 'NONE', *, *, #46, .T. ) ;
#313 = EDGE_LOOP ( 'NONE', ( #319 ) ) ;
#314 = DIRECTION ( 'NONE',  ( 1.000000000000000000, 0.000000000000000000, -3.468071299249311414E-15 ) ) ;
#315 = FACE_OUTER_BOUND ( 'NONE', #162, .T. ) ;
#316 = DIRECTION ( 'NONE',  ( 1.000000000000000000, 0.000000000000000000, -4.439131263039117978E-15 ) ) ;
#317 = CALENDAR_DATE ( 2023, 27, 9 ) ;
#318 = DATE_TIME_ROLE ( 'classification_date' ) ;
#319 = ORIENTED_EDGE ( 'NONE', *, *, #300, .F. ) ;
#320 = DIRECTION ( 'NONE',  ( -3.491481338843133355E-15, 0.000000000000000000, -1.000000000000000000 ) ) ;
#321 = DATE_AND_TIME ( #221, #161 ) ;
#322 = DIRECTION ( 'NONE',  ( -1.000000000000000000, 0.000000000000000000, 3.533695969582385070E-15 ) ) ;
#323 = CARTESIAN_POINT ( 'NONE',  ( 1.990144363140586139E-13, 0.000000000000000000, 57.00000000000000000 ) ) ;
#324 = CALENDAR_DATE ( 2023, 27, 9 ) ;
#325 = CIRCLE ( 'NONE', #148, 1.389999999999998570 ) ;
#326 = ORIENTED_EDGE ( 'NONE', *, *, #46, .F. ) ;
#327 = VERTEX_POINT ( 'NONE', #264 ) ;
#328 = ADVANCED_FACE ( 'NONE', ( #159, #389 ), #184, .T. ) ;
#329 = EDGE_LOOP ( 'NONE', ( #4 ) ) ;
#330 = PERSON ( 'UNSPECIFIED', 'UNSPECIFIED', 'UNSPECIFIED', ('UNSPECIFIED'), ('UNSPECIFIED'), ('UNSPECIFIED') ) ;
#331 = VERTEX_POINT ( 'NONE', #360 ) ;
#332 = CARTESIAN_POINT ( 'NONE',  ( 4.105569726280866572E-14, 0.000000000000000000, 11.75881904510251630 ) ) ;
#333 = PRODUCT_DEFINITION_FORMATION_WITH_SPECIFIED_SOURCE ( 'ANY', '', #7, .NOT_KNOWN. ) ;
#334 = FACE_OUTER_BOUND ( 'NONE', #125, .T. ) ;
#335 = DIRECTION ( 'NONE',  ( 1.000000000000000000, 0.000000000000000000, -4.625929269271490055E-15 ) ) ;
#336 = DIRECTION ( 'NONE',  ( 0.000000000000000000, 0.000000000000000000, 1.000000000000000000 ) ) ;
#337 = AXIS2_PLACEMENT_3D ( 'NONE', #201, #262, #322 ) ;
#338 = LOCAL_TIME ( 10, 29, 55.00000000000000000, #257 ) ;
#339 = ADVANCED_FACE ( 'NONE', ( #177, #142 ), #206, .T. ) ;
#340 = EDGE_LOOP ( 'NONE', ( #367 ) ) ;
#341 = DATE_TIME_ROLE ( 'creation_date' ) ;
#342 = UNCERTAINTY_MEASURE_WITH_UNIT (LENGTH_MEASURE( 1.000000000000000082E-05 ), #35, 'distance_accuracy_value', 'NONE');
#343 = CIRCLE ( 'NONE', #170, 2.399999999999996803 ) ;
#344 = CARTESIAN_POINT ( 'NONE',  ( 6.159061869312336535E-14, 0.000000000000000000, 17.64025429777344556 ) ) ;
#345 = EDGE_LOOP ( 'NONE', ( #123 ) ) ;
#346 = DIRECTION ( 'NONE',  ( 1.000000000000000000, 0.000000000000000000, -3.468071299249311414E-15 ) ) ;
#347 = ORIENTED_EDGE ( 'NONE', *, *, #246, .F. ) ;
#348 = DIRECTION ( 'NONE',  ( 3.491481338843133355E-15, -0.000000000000000000, 1.000000000000000000 ) ) ;
#349 = FACE_OUTER_BOUND ( 'NONE', #32, .T. ) ;
#350 = CONICAL_SURFACE ( 'NONE', #179, 2.024999999999999911, 1.047197551196602960 ) ;
#351 = CIRCLE ( 'NONE', #160, 2.024999999999999911 ) ;
#352 = CONICAL_SURFACE ( 'NONE', #36, 2.999999999999995115, 0.7853981633974442822 ) ;
#353 = DIRECTION ( 'NONE',  ( 1.000000000000000000, 0.000000000000000000, -3.426614273534433996E-15 ) ) ;
#354 = CARTESIAN_POINT ( 'NONE',  ( 4.015203539669603990E-14, 0.000000000000000000, 11.50000000000000355 ) ) ;
#355 = ADVANCED_FACE ( 'NONE', ( #298, #27 ), #286, .T. ) ;
#356 = DIRECTION ( 'NONE',  ( 3.491481338843133355E-15, -0.000000000000000000, 1.000000000000000000 ) ) ;
#357 = DIRECTION ( 'NONE',  ( 1.000000000000000000, 0.000000000000000000, -3.426614273534433996E-15 ) ) ;
#358 = PERSON_AND_ORGANIZATION_ROLE ( 'creator' ) ;
#359 = DIRECTION ( 'NONE',  ( 1.000000000000000000, 0.000000000000000000, -3.480155121558409533E-15 ) ) ;
#360 = CARTESIAN_POINT ( 'NONE',  ( 2.025000000000001243, 0.000000000000000000, 0.4333333333333271309 ) ) ;
#361 = EDGE_LOOP ( 'NONE', ( #245 ) ) ;
#362 = CARTESIAN_POINT ( 'NONE',  ( 3.142333204958813314E-15, 0.000000000000000000, 0.8999999999999980238 ) ) ;
#363 = CARTESIAN_POINT ( 'NONE',  ( 3.142333204958813314E-15, 0.000000000000000000, 0.8999999999999980238 ) ) ;
#364 = AXIS2_PLACEMENT_3D ( 'NONE', #395, #118, #335 ) ;
#365 = AXIS2_PLACEMENT_3D ( 'NONE', #291, #294, #207 ) ;
#366 = ORIENTED_EDGE ( 'NONE', *, *, #237, .F. ) ;
#367 = ORIENTED_EDGE ( 'NONE', *, *, #217, .F. ) ;
#368 = DIRECTION ( 'NONE',  ( 1.000000000000000000, 0.000000000000000000, -4.439131263039117978E-15 ) ) ;
#369 = MECHANICAL_CONTEXT ( 'NONE', #392, 'mechanical' ) ;
#370 = EDGE_LOOP ( 'NONE', ( #66 ) ) ;
#371 = CLOSED_SHELL ( 'NONE', ( #153, #394, #355, #188, #225, #339, #71, #111, #236, #390, #29, #6, #328, #183, #375, #250 ) ) ;
#372 = DIRECTION ( 'NONE',  ( 1.000000000000000000, 0.000000000000000000, -3.491481338843132961E-15 ) ) ;
#373 = EDGE_LOOP ( 'NONE', ( #218 ) ) ;
#374 = DIRECTION ( 'NONE',  ( 1.000000000000000000, 0.000000000000000000, -3.533695969582385070E-15 ) ) ;
#375 = ADVANCED_FACE ( 'NONE', ( #256, #146 ), #352, .T. ) ;
#376 = DIRECTION ( 'NONE',  ( 3.491481338843133355E-15, -0.000000000000000000, 1.000000000000000000 ) ) ;
#377 = DIRECTION ( 'NONE',  ( 1.000000000000000000, 0.000000000000000000, -3.468071299249311019E-15 ) ) ;
#378 = PERSON_AND_ORGANIZATION_ROLE ( 'design_owner' ) ;
#379 = FACE_OUTER_BOUND ( 'NONE', #141, .T. ) ;
#380 = CARTESIAN_POINT ( 'NONE',  ( 5.586370142149014157E-15, 1.563119784648296706, 1.600000000000000311 ) ) ;
#381 = DIRECTION ( 'NONE',  ( 1.000000000000000000, 0.000000000000000000, -3.654423711911800510E-15 ) ) ;
#382 = DIRECTION ( 'NONE',  ( 1.000000000000000000, 0.000000000000000000, -3.468071299249311019E-15 ) ) ;
#383 = PERSON_AND_ORGANIZATION ( #330, #124 ) ;
#384 = CC_DESIGN_PERSON_AND_ORGANIZATION_ASSIGNMENT ( #169, #37, ( #333 ) ) ;
#385 = DIRECTION ( 'NONE',  ( 3.491481338843133355E-15, -0.000000000000000000, 1.000000000000000000 ) ) ;
#386 = CARTESIAN_POINT ( 'NONE',  ( 1.563119784648299815, 0.000000000000000000, 0.8999999999999925837 ) ) ;
#387 = AXIS2_PLACEMENT_3D ( 'NONE', #275, #194, #346 ) ;
#388 = EDGE_LOOP ( 'NONE', ( #44 ) ) ;
#389 = FACE_BOUND ( 'NONE', #243, .T. ) ;
#390 = ADVANCED_FACE ( 'NONE', ( #289, #260 ), #180, .F. ) ;
#391 = DIRECTION ( 'NONE',  ( 3.491481338843133355E-15, -0.000000000000000000, 1.000000000000000000 ) ) ;
#392 = APPLICATION_CONTEXT ( 'configuration controlled 3d designs of mechanical parts and assemblies' ) ;
#393 = CARTESIAN_POINT ( 'NONE',  ( 2.400000000000195755, 0.000000000000000000, 56.99999999999999289 ) ) ;
#394 = ADVANCED_FACE ( 'NONE', ( #106, #73 ), #113, .T. ) ;
#395 = CARTESIAN_POINT ( 'NONE',  ( 1.990144363140586139E-13, 0.000000000000000000, 57.00000000000000000 ) ) ;
ENDSEC;
END-ISO-10303-21;
