ISO-10303-21;
HEADER;
FILE_DESCRIPTION (( 'STEP AP203' ),
    '1' );
FILE_NAME ('960463.step',
    '2023-09-27T08:29:54',
    ( '' ),
    ( '' ),
    'SwSTEP 2.0',
    'SolidWorks 2022',
    '' );
FILE_SCHEMA (( 'CONFIG_CONTROL_DESIGN' ));
ENDSEC;

DATA;
#1 = VERTEX_POINT ( 'NONE', #64 ) ;
#2 = CC_DESIGN_PERSON_AND_ORGANIZATION_ASSIGNMENT ( #315, #198, ( #270 ) ) ;
#3 = EDGE_LOOP ( 'NONE', ( #319 ) ) ;
#4 = VERTEX_POINT ( 'NONE', #395 ) ;
#5 = VERTEX_POINT ( 'NONE', #158 ) ;
#6 = DATE_AND_TIME ( #310, #56 ) ;
#7 = DIRECTION ( 'NONE',  ( 1.000000000000000000, 0.000000000000000000, -3.491481338843133355E-15 ) ) ;
#8 = ADVANCED_FACE ( 'NONE', ( #150, #120 ), #98, .F. ) ;
#9 = AXIS2_PLACEMENT_3D ( 'NONE', #177, #324, #174 ) ;
#10 = PERSON_AND_ORGANIZATION ( #244, #63 ) ;
#11 = CC_DESIGN_APPROVAL ( #261, ( #270 ) ) ;
#12 = CYLINDRICAL_SURFACE ( 'NONE', #139, 1.180854811567259466 ) ;
#13 = ORIENTED_EDGE ( 'NONE', *, *, #387, .T. ) ;
#14 = EDGE_LOOP ( 'NONE', ( #371 ) ) ;
#15 = PERSON_AND_ORGANIZATION ( #244, #63 ) ;
#16 = DIRECTION ( 'NONE',  ( 1.000000000000000000, 0.000000000000000000, -5.876161773603444131E-15 ) ) ;
#17 = EDGE_LOOP ( 'NONE', ( #118 ) ) ;
#18 = EDGE_LOOP ( 'NONE', ( #345 ) ) ;
#19 = FACE_BOUND ( 'NONE', #349, .T. ) ;
#20 = EDGE_LOOP ( 'NONE', ( #258 ) ) ;
#21 = DIRECTION ( 'NONE',  ( 1.000000000000000000, 0.000000000000000000, -3.469446951953614189E-15 ) ) ;
#22 = DIRECTION ( 'NONE',  ( 3.491481338843133355E-15, -0.000000000000000000, 1.000000000000000000 ) ) ;
#23 = FACE_OUTER_BOUND ( 'NONE', #142, .T. ) ;
#24 = AXIS2_PLACEMENT_3D ( 'NONE', #327, #111, #21 ) ;
#25 = AXIS2_PLACEMENT_3D ( 'NONE', #362, #221, #157 ) ;
#26 = DIRECTION ( 'NONE',  ( 3.491481338843133355E-15, -0.000000000000000000, 1.000000000000000000 ) ) ;
#27 = EDGE_LOOP ( 'NONE', ( #260 ) ) ;
#28 = EDGE_CURVE ( 'NONE', #358, #358, #195, .T. ) ;
#29 = CARTESIAN_POINT ( 'NONE',  ( 1.585000000000003517, 0.000000000000000000, 1.020833333333326376 ) ) ;
#30 = AXIS2_PLACEMENT_3D ( 'NONE', #275, #124, #188 ) ;
#31 = VERTEX_POINT ( 'NONE', #29 ) ;
#32 = DIRECTION ( 'NONE',  ( -3.491481338843133355E-15, 0.000000000000000000, -1.000000000000000000 ) ) ;
#33 = VERTEX_POINT ( 'NONE', #222 ) ;
#34 = APPROVAL_PERSON_ORGANIZATION ( #37, #305, #163 ) ;
#35 = CALENDAR_DATE ( 2023, 27, 9 ) ;
#36 = CARTESIAN_POINT ( 'NONE',  ( 0.000000000000000000, 0.000000000000000000, 0.000000000000000000 ) ) ;
#37 = PERSON_AND_ORGANIZATION ( #244, #63 ) ;
#38 = DATE_TIME_ROLE ( 'classification_date' ) ;
#39 = AXIS2_PLACEMENT_3D ( 'NONE', #128, #32, #331 ) ;
#40 = EDGE_LOOP ( 'NONE', ( #169 ) ) ;
#41 = DATE_AND_TIME ( #339, #186 ) ;
#42 = CARTESIAN_POINT ( 'NONE',  ( 1.452456236958743728E-13, 0.000000000000000000, 41.60000000000000853 ) ) ;
#43 = UNCERTAINTY_MEASURE_WITH_UNIT (LENGTH_MEASURE( 1.000000000000000082E-05 ), #151, 'distance_accuracy_value', 'NONE');
#44 = ORIENTED_EDGE ( 'NONE', *, *, #108, .F. ) ;
#45 = DIRECTION ( 'NONE',  ( 1.000000000000000000, 0.000000000000000000, -3.491481338843133355E-15 ) ) ;
#46 = ADVANCED_FACE ( 'NONE', ( #367, #71 ), #350, .F. ) ;
#47 = CIRCLE ( 'NONE', #154, 1.584999999999999964 ) ;
#48 = FACE_OUTER_BOUND ( 'NONE', #256, .T. ) ;
#49 = EDGE_LOOP ( 'NONE', ( #298 ) ) ;
#50 = DIRECTION ( 'NONE',  ( 3.491481338843133355E-15, -0.000000000000000000, 1.000000000000000000 ) ) ;
#51 = ORIENTED_EDGE ( 'NONE', *, *, #182, .F. ) ;
#52 = CARTESIAN_POINT ( 'NONE',  ( 1.466422162314116009E-13, 0.000000000000000000, 42.00000000000000000 ) ) ;
#53 = EDGE_LOOP ( 'NONE', ( #205 ) ) ;
#54 = DIRECTION ( 'NONE',  ( 1.000000000000000000, 0.000000000000000000, -3.469446951953620105E-15 ) ) ;
#55 = AXIS2_PLACEMENT_3D ( 'NONE', #203, #138, #160 ) ;
#56 = LOCAL_TIME ( 10, 29, 54.00000000000000000, #372 ) ;
#57 = DIRECTION ( 'NONE',  ( 1.000000000000000000, 0.000000000000000000, -3.488971053077044435E-15 ) ) ;
#58 = ORIENTED_EDGE ( 'NONE', *, *, #283, .T. ) ;
#59 = FACE_OUTER_BOUND ( 'NONE', #236, .T. ) ;
#60 = CC_DESIGN_PERSON_AND_ORGANIZATION_ASSIGNMENT ( #15, #307, ( #104 ) ) ;
#61 = CARTESIAN_POINT ( 'NONE',  ( 1.585000000000001075, 0.000000000000000000, 0.3208333333333271420 ) ) ;
#62 = AXIS2_PLACEMENT_3D ( 'NONE', #36, #164, #7 ) ;
#63 = ORGANIZATION ( 'UNSPECIFIED', 'UNSPECIFIED', '' ) ;
#64 = CARTESIAN_POINT ( 'NONE',  ( 1.180854811567264129, 0.000000000000000000, 1.312499999999997113 ) ) ;
#65 = APPROVAL_DATE_TIME ( #337, #261 ) ;
#66 = SECURITY_CLASSIFICATION_LEVEL ( 'unclassified' ) ;
#67 = DIRECTION ( 'NONE',  ( -1.000000000000000000, 0.000000000000000000, 3.491481338843133355E-15 ) ) ;
#68 = APPLICATION_PROTOCOL_DEFINITION ( 'international standard', 'config_control_design', 1994, #122 ) ;
#69 = DIRECTION ( 'NONE',  ( 1.000000000000000000, 0.000000000000000000, -3.557003972823106077E-15 ) ) ;
#70 = COORDINATED_UNIVERSAL_TIME_OFFSET ( 1, 0, .AHEAD. ) ;
#71 = FACE_OUTER_BOUND ( 'NONE', #20, .T. ) ;
#72 = AXIS2_PLACEMENT_3D ( 'NONE', #252, #341, #67 ) ;
#73 = APPROVAL_DATE_TIME ( #6, #161 ) ;
#74 = CIRCLE ( 'NONE', #25, 1.180854811567259688 ) ;
#75 = DIRECTION ( 'NONE',  ( 1.000000000000000000, 0.000000000000000000, -3.352122658892384109E-15 ) ) ;
#76 = ORIENTED_EDGE ( 'NONE', *, *, #28, .F. ) ;
#77 = ADVANCED_FACE ( 'NONE', ( #94, #199 ), #207, .T. ) ;
#78 = FACE_OUTER_BOUND ( 'NONE', #79, .T. ) ;
#79 = EDGE_LOOP ( 'NONE', ( #51 ) ) ;
#80 = CARTESIAN_POINT ( 'NONE',  ( 3.767890278168211853E-15, 0.000000000000000000, 1.079166666666665719 ) ) ;
#81 = ORIENTED_EDGE ( 'NONE', *, *, #387, .F. ) ;
#82 = EDGE_CURVE ( 'NONE', #334, #334, #338, .T. ) ;
#83 = DIRECTION ( 'NONE',  ( 3.491481338843133355E-15, -0.000000000000000000, 1.000000000000000000 ) ) ;
#84 = CARTESIAN_POINT ( 'NONE',  ( 4.888073874380381175E-15, 0.000000000000000000, 1.399999999999998579 ) ) ;
#85 = DIRECTION ( 'NONE',  ( 1.000000000000000000, 0.000000000000000000, -3.469446951953617344E-15 ) ) ;
#86 = VERTEX_POINT ( 'NONE', #215 ) ;
#87 = CONICAL_SURFACE ( 'NONE', #274, 1.029300365904982417, 1.047197551196600740 ) ;
#88 =( NAMED_UNIT ( * ) SI_UNIT ( $, .STERADIAN. ) SOLID_ANGLE_UNIT ( ) );
#89 = VERTEX_POINT ( 'NONE', #123 ) ;
#90 = AXIS2_PLACEMENT_3D ( 'NONE', #211, #206, #318 ) ;
#91 = CC_DESIGN_SECURITY_CLASSIFICATION ( #270, ( #354 ) ) ;
#92 = DIRECTION ( 'NONE',  ( 3.491481338843133355E-15, -0.000000000000000000, 1.000000000000000000 ) ) ;
#93 = PERSON_AND_ORGANIZATION_ROLE ( 'creator' ) ;
#94 = FACE_OUTER_BOUND ( 'NONE', #40, .T. ) ;
#95 = APPLICATION_CONTEXT ( 'configuration controlled 3d designs of mechanical parts and assemblies' ) ;
#96 = CALENDAR_DATE ( 2023, 27, 9 ) ;
#97 = CARTESIAN_POINT ( 'NONE',  ( 3.247077645124114651E-14, 0.000000000000000000, 9.300000000000000711 ) ) ;
#98 = TOROIDAL_SURFACE ( 'NONE', #216, 2.034999999999999254, 1.000000000000000000 ) ;
#99 = DATE_AND_TIME ( #133, #292 ) ;
#100 = EDGE_LOOP ( 'NONE', ( #263 ) ) ;
#101 = CARTESIAN_POINT ( 'NONE',  ( 0.000000000000000000, 0.000000000000000000, 0.000000000000000000 ) ) ;
#102 = DIRECTION ( 'NONE',  ( 1.000000000000000000, 0.000000000000000000, -3.245281793601471319E-15 ) ) ;
#103 = ORIENTED_EDGE ( 'NONE', *, *, #390, .T. ) ;
#104 = PRODUCT_DEFINITION ( 'UNKNOWN', '', #354, #218 ) ;
#105 = CIRCLE ( 'NONE', #55, 1.069074173710928832 ) ;
#106 = DIRECTION ( 'NONE',  ( 3.491481338843133355E-15, -0.000000000000000000, 1.000000000000000000 ) ) ;
#107 = EDGE_LOOP ( 'NONE', ( #137 ) ) ;
#108 = EDGE_CURVE ( 'NONE', #31, #31, #383, .T. ) ;
#109 = CC_DESIGN_PERSON_AND_ORGANIZATION_ASSIGNMENT ( #129, #93, ( #354 ) ) ;
#110 = CARTESIAN_POINT ( 'NONE',  ( 4.888073874380381175E-15, 0.000000000000000000, 1.399999999999998579 ) ) ;
#111 = DIRECTION ( 'NONE',  ( 3.491481338843133355E-15, -0.000000000000000000, 1.000000000000000000 ) ) ;
#112 = ORIENTED_EDGE ( 'NONE', *, *, #189, .F. ) ;
#113 = PRODUCT ( '960463', '960463', '', ( #250 ) ) ;
#114 = AXIS2_PLACEMENT_3D ( 'NONE', #52, #179, #143 ) ;
#115 = ADVANCED_FACE ( 'NONE', ( #370, #312 ), #12, .T. ) ;
#116 = APPROVAL_PERSON_ORGANIZATION ( #10, #161, #197 ) ;
#117 = DIRECTION ( 'NONE',  ( 3.491481338843133355E-15, -0.000000000000000000, 1.000000000000000000 ) ) ;
#118 = ORIENTED_EDGE ( 'NONE', *, *, #309, .F. ) ;
#119 = CARTESIAN_POINT ( 'NONE',  ( 2.138532320041425885E-15, 0.000000000000000000, 0.6125000000000019318 ) ) ;
#120 = FACE_OUTER_BOUND ( 'NONE', #208, .T. ) ;
#121 = CARTESIAN_POINT ( 'NONE',  ( 1.180854811567264351, 0.000000000000000000, 1.399999999999994360 ) ) ;
#122 = APPLICATION_CONTEXT ( 'configuration controlled 3d designs of mechanical parts and assemblies' ) ;
#123 = CARTESIAN_POINT ( 'NONE',  ( 1.585000000000003739, 0.000000000000000000, 1.079166666666660168 ) ) ;
#124 = DIRECTION ( 'NONE',  ( 3.491481338843133355E-15, -0.000000000000000000, 1.000000000000000000 ) ) ;
#125 = VERTEX_POINT ( 'NONE', #365 ) ;
#126 = AXIS2_PLACEMENT_3D ( 'NONE', #294, #117, #293 ) ;
#127 = CC_DESIGN_APPROVAL ( #161, ( #104 ) ) ;
#128 = CARTESIAN_POINT ( 'NONE',  ( 3.767890278168211853E-15, 0.000000000000000000, 1.079166666666665719 ) ) ;
#129 = PERSON_AND_ORGANIZATION ( #244, #63 ) ;
#130 = CARTESIAN_POINT ( 'NONE',  ( 3.247077645124114651E-14, 0.000000000000000000, 9.300000000000002487 ) ) ;
#131 = APPROVAL_STATUS ( 'not_yet_approved' ) ;
#132 = AXIS2_PLACEMENT_3D ( 'NONE', #166, #284, #102 ) ;
#133 = CALENDAR_DATE ( 2023, 27, 9 ) ;
#134 = DIRECTION ( 'NONE',  ( -1.000000000000000000, 0.000000000000000000, 3.491481338843133355E-15 ) ) ;
#135 = MANIFOLD_SOLID_BREP ( 'Corps-Déplacer/Copier1', #360 ) ;
#136 = DIRECTION ( 'NONE',  ( 1.000000000000000000, 0.000000000000000000, -3.491481338843133355E-15 ) ) ;
#137 = ORIENTED_EDGE ( 'NONE', *, *, #229, .T. ) ;
#138 = DIRECTION ( 'NONE',  ( 3.491481338843133355E-15, -0.000000000000000000, 1.000000000000000000 ) ) ;
#139 = AXIS2_PLACEMENT_3D ( 'NONE', #235, #347, #16 ) ;
#140 = ORIENTED_EDGE ( 'NONE', *, *, #278, .T. ) ;
#141 = FACE_BOUND ( 'NONE', #330, .T. ) ;
#142 = EDGE_LOOP ( 'NONE', ( #140 ) ) ;
#143 = DIRECTION ( 'NONE',  ( 1.000000000000000000, 0.000000000000000000, -4.377851043474592034E-15 ) ) ;
#144 = EDGE_LOOP ( 'NONE', ( #13 ) ) ;
#145 = FACE_OUTER_BOUND ( 'NONE', #17, .T. ) ;
#146 = EDGE_LOOP ( 'NONE', ( #44 ) ) ;
#147 = FACE_OUTER_BOUND ( 'NONE', #241, .T. ) ;
#148 = EDGE_CURVE ( 'NONE', #153, #153, #105, .T. ) ;
#149 = CYLINDRICAL_SURFACE ( 'NONE', #201, 1.180854811567259466 ) ;
#150 = FACE_OUTER_BOUND ( 'NONE', #3, .T. ) ;
#151 =( LENGTH_UNIT ( ) NAMED_UNIT ( * ) SI_UNIT ( .MILLI., .METRE. ) );
#152 = AXIS2_PLACEMENT_3D ( 'NONE', #253, #196, #281 ) ;
#153 = VERTEX_POINT ( 'NONE', #361 ) ;
#154 = AXIS2_PLACEMENT_3D ( 'NONE', #352, #83, #175 ) ;
#155 =( GEOMETRIC_REPRESENTATION_CONTEXT ( 3 ) GLOBAL_UNCERTAINTY_ASSIGNED_CONTEXT ( ( #43 ) ) GLOBAL_UNIT_ASSIGNED_CONTEXT ( ( #151, #156, #88 ) ) REPRESENTATION_CONTEXT ( 'NONE', 'WORKASPACE' ) );
#156 =( NAMED_UNIT ( * ) PLANE_ANGLE_UNIT ( ) SI_UNIT ( $, .RADIAN. ) );
#157 = DIRECTION ( 'NONE',  ( 1.000000000000000000, 0.000000000000000000, -3.488971053077044435E-15 ) ) ;
#158 = CARTESIAN_POINT ( 'NONE',  ( 1.035000000000004805, 0.000000000000000000, 1.399999999999994804 ) ) ;
#159 = CIRCLE ( 'NONE', #24, 2.000000000000000000 ) ;
#160 = DIRECTION ( 'NONE',  ( 1.000000000000000000, 0.000000000000000000, -3.245281793601471319E-15 ) ) ;
#161 = APPROVAL ( #287, 'UNSPECIFIED' ) ;
#162 = CC_DESIGN_DATE_AND_TIME_ASSIGNMENT ( #99, #38, ( #270 ) ) ;
#163 = APPROVAL_ROLE ( '' ) ;
#164 = DIRECTION ( 'NONE',  ( 3.491481338843133355E-15, -0.000000000000000000, 1.000000000000000000 ) ) ;
#165 = COORDINATED_UNIVERSAL_TIME_OFFSET ( 1, 0, .AHEAD. ) ;
#166 = CARTESIAN_POINT ( 'NONE',  ( 3.337443831735376603E-14, 0.000000000000000000, 9.558819045102515233 ) ) ;
#167 = AXIS2_PLACEMENT_3D ( 'NONE', #225, #106, #69 ) ;
#168 = COORDINATED_UNIVERSAL_TIME_OFFSET ( 1, 0, .AHEAD. ) ;
#169 = ORIENTED_EDGE ( 'NONE', *, *, #278, .F. ) ;
#170 = DIRECTION ( 'NONE',  ( -3.491481338843133355E-15, 0.000000000000000000, -1.000000000000000000 ) ) ;
#171 = CC_DESIGN_PERSON_AND_ORGANIZATION_ASSIGNMENT ( #223, #279, ( #354 ) ) ;
#172 = FACE_OUTER_BOUND ( 'NONE', #302, .T. ) ;
#173 = CONICAL_SURFACE ( 'NONE', #90, 1.584999999999999964, 1.047197551196596743 ) ;
#174 = DIRECTION ( 'NONE',  ( 1.000000000000000000, 0.000000000000000000, -4.377851043474592034E-15 ) ) ;
#175 = DIRECTION ( 'NONE',  ( 1.000000000000000000, 0.000000000000000000, -3.488600050268815712E-15 ) ) ;
#176 = ADVANCED_FACE ( 'NONE', ( #316, #376 ), #266, .T. ) ;
#177 = CARTESIAN_POINT ( 'NONE',  ( 1.466422162314116009E-13, 0.000000000000000000, 42.00000000000000000 ) ) ;
#178 = ADVANCED_FACE ( 'NONE', ( #288 ), #277, .F. ) ;
#179 = DIRECTION ( 'NONE',  ( 3.491481338843133355E-15, -0.000000000000000000, 1.000000000000000000 ) ) ;
#180 = EDGE_LOOP ( 'NONE', ( #200 ) ) ;
#181 = CARTESIAN_POINT ( 'NONE',  ( 1.585000000000001297, 0.000000000000000000, 0.3791666666666609897 ) ) ;
#182 = EDGE_CURVE ( 'NONE', #4, #4, #185, .T. ) ;
#183 = CARTESIAN_POINT ( 'NONE',  ( 1.600000000000143752, 0.000000000000000000, 41.99999999999999289 ) ) ;
#184 = FACE_OUTER_BOUND ( 'NONE', #14, .T. ) ;
#185 = CIRCLE ( 'NONE', #62, 1.029300365904982417 ) ;
#186 = LOCAL_TIME ( 10, 29, 54.00000000000000000, #165 ) ;
#187 = DIRECTION ( 'NONE',  ( 3.491481338843133355E-15, -0.000000000000000000, 1.000000000000000000 ) ) ;
#188 = DIRECTION ( 'NONE',  ( 1.000000000000000000, 0.000000000000000000, -6.704245317784765064E-15 ) ) ;
#189 = EDGE_CURVE ( 'NONE', #89, #89, #321, .T. ) ;
#190 = ADVANCED_BREP_SHAPE_REPRESENTATION ( '960463', ( #135, #267 ), #155 ) ;
#191 = SHAPE_DEFINITION_REPRESENTATION ( #286, #190 ) ;
#192 = ADVANCED_FACE ( 'NONE', ( #290, #48 ), #297, .T. ) ;
#193 = AXIS2_PLACEMENT_3D ( 'NONE', #80, #50, #389 ) ;
#194 = DIRECTION ( 'NONE',  ( 0.000000000000000000, 0.000000000000000000, 1.000000000000000000 ) ) ;
#195 = CIRCLE ( 'NONE', #230, 1.034999999999999032 ) ;
#196 = DIRECTION ( 'NONE',  ( 3.491481338843133355E-15, -0.000000000000000000, 1.000000000000000000 ) ) ;
#197 = APPROVAL_ROLE ( '' ) ;
#198 = PERSON_AND_ORGANIZATION_ROLE ( 'classification_officer' ) ;
#199 = FACE_BOUND ( 'NONE', #391, .T. ) ;
#200 = ORIENTED_EDGE ( 'NONE', *, *, #325, .F. ) ;
#201 = AXIS2_PLACEMENT_3D ( 'NONE', #386, #269, #262 ) ;
#202 = APPROVAL_DATE_TIME ( #41, #305 ) ;
#203 = CARTESIAN_POINT ( 'NONE',  ( 3.337443831735376603E-14, 0.000000000000000000, 9.558819045102515233 ) ) ;
#204 = DIRECTION ( 'NONE',  ( 1.000000000000000000, 0.000000000000000000, -3.491481338843133355E-15 ) ) ;
#205 = ORIENTED_EDGE ( 'NONE', *, *, #309, .T. ) ;
#206 = DIRECTION ( 'NONE',  ( -3.491481338843133355E-15, 0.000000000000000000, -1.000000000000000000 ) ) ;
#207 = CONICAL_SURFACE ( 'NONE', #132, 1.069074173710928832, 0.2617993877991428575 ) ;
#208 = EDGE_LOOP ( 'NONE', ( #289 ) ) ;
#209 = AXIS2_PLACEMENT_3D ( 'NONE', #246, #187, #57 ) ;
#210 = LOCAL_TIME ( 10, 29, 54.00000000000000000, #168 ) ;
#211 = CARTESIAN_POINT ( 'NONE',  ( 1.323853340978020871E-15, 0.000000000000000000, 0.3791666666666665408 ) ) ;
#212 = DIRECTION ( 'NONE',  ( 3.491481338843133355E-15, -0.000000000000000000, 1.000000000000000000 ) ) ;
#213 = CARTESIAN_POINT ( 'NONE',  ( -1.299102299286772033E-33, 0.000000000000000000, -3.720776865779315142E-19 ) ) ;
#214 = AXIS2_PLACEMENT_3D ( 'NONE', #110, #239, #238 ) ;
#215 = CARTESIAN_POINT ( 'NONE',  ( 1.180854811567262352, 0.000000000000000000, 0.7874999999999993117 ) ) ;
#216 = AXIS2_PLACEMENT_3D ( 'NONE', #97, #280, #136 ) ;
#217 = ADVANCED_FACE ( 'NONE', ( #243, #378 ), #320, .T. ) ;
#218 = DESIGN_CONTEXT ( 'detailed design', #122, 'design' ) ;
#219 = CARTESIAN_POINT ( 'NONE',  ( 1.323853340978020871E-15, 0.000000000000000000, 0.3791666666666665408 ) ) ;
#220 = VERTEX_POINT ( 'NONE', #304 ) ;
#221 = DIRECTION ( 'NONE',  ( 3.491481338843133355E-15, -0.000000000000000000, 1.000000000000000000 ) ) ;
#222 = CARTESIAN_POINT ( 'NONE',  ( 2.000000000000141664, 0.000000000000000000, 41.60000000000000142 ) ) ;
#223 = PERSON_AND_ORGANIZATION ( #244, #63 ) ;
#224 = DATE_TIME_ROLE ( 'creation_date' ) ;
#225 = CARTESIAN_POINT ( 'NONE',  ( 3.564220533402360304E-15, 0.000000000000000000, 1.020833333333331927 ) ) ;
#226 = AXIS2_PLACEMENT_3D ( 'NONE', #379, #382, #54 ) ;
#227 = PRODUCT_RELATED_PRODUCT_CATEGORY ( 'detail', '', ( #113 ) ) ;
#228 = APPROVAL_ROLE ( '' ) ;
#229 = EDGE_CURVE ( 'NONE', #1, #1, #333, .T. ) ;
#230 = AXIS2_PLACEMENT_3D ( 'NONE', #130, #343, #75 ) ;
#231 = ADVANCED_FACE ( 'NONE', ( #78 ), #265, .F. ) ;
#232 = DATE_AND_TIME ( #96, #394 ) ;
#233 = AXIS2_PLACEMENT_3D ( 'NONE', #213, #268, #45 ) ;
#234 = EDGE_LOOP ( 'NONE', ( #322 ) ) ;
#235 = CARTESIAN_POINT ( 'NONE',  ( 1.466422162314116009E-13, 0.000000000000000000, 42.00000000000000000 ) ) ;
#236 = EDGE_LOOP ( 'NONE', ( #76 ) ) ;
#237 = CC_DESIGN_PERSON_AND_ORGANIZATION_ASSIGNMENT ( #368, #254, ( #113 ) ) ;
#238 = DIRECTION ( 'NONE',  ( 1.000000000000000000, 0.000000000000000000, -3.488971053077045224E-15 ) ) ;
#239 = DIRECTION ( 'NONE',  ( 3.491481338843133355E-15, -0.000000000000000000, 1.000000000000000000 ) ) ;
#240 = FACE_OUTER_BOUND ( 'NONE', #18, .T. ) ;
#241 = EDGE_LOOP ( 'NONE', ( #81 ) ) ;
#242 = DIRECTION ( 'NONE',  ( 1.000000000000000000, 0.000000000000000000, -3.488971053077045224E-15 ) ) ;
#243 = FACE_OUTER_BOUND ( 'NONE', #234, .T. ) ;
#244 = PERSON ( 'UNSPECIFIED', 'UNSPECIFIED', 'UNSPECIFIED', ('UNSPECIFIED'), ('UNSPECIFIED'), ('UNSPECIFIED') ) ;
#245 = FACE_OUTER_BOUND ( 'NONE', #146, .T. ) ;
#246 = CARTESIAN_POINT ( 'NONE',  ( 2.749541554338979745E-15, 0.000000000000000000, 0.7875000000000034195 ) ) ;
#247 = FACE_BOUND ( 'NONE', #144, .T. ) ;
#248 = CIRCLE ( 'NONE', #346, 1.034999999999999920 ) ;
#249 = ADVANCED_FACE ( 'NONE', ( #19, #172 ), #173, .T. ) ;
#250 = MECHANICAL_CONTEXT ( 'NONE', #95, 'mechanical' ) ;
#251 = EDGE_CURVE ( 'NONE', #125, #125, #364, .T. ) ;
#252 = CARTESIAN_POINT ( 'NONE',  ( 1.466422162314116009E-13, 1.599999999999997202, 42.00000000000000000 ) ) ;
#253 = CARTESIAN_POINT ( 'NONE',  ( 1.466422162314116009E-13, 0.000000000000000000, 42.00000000000000000 ) ) ;
#254 = PERSON_AND_ORGANIZATION_ROLE ( 'design_owner' ) ;
#255 = ADVANCED_FACE ( 'NONE', ( #353, #23 ), #296, .T. ) ;
#256 = EDGE_LOOP ( 'NONE', ( #272 ) ) ;
#257 = ADVANCED_FACE ( 'NONE', ( #147, #240 ), #149, .T. ) ;
#258 = ORIENTED_EDGE ( 'NONE', *, *, #299, .T. ) ;
#259 = CARTESIAN_POINT ( 'NONE',  ( 0.000000000000000000, 0.000000000000000000, 0.000000000000000000 ) ) ;
#260 = ORIENTED_EDGE ( 'NONE', *, *, #82, .F. ) ;
#261 = APPROVAL ( #131, 'UNSPECIFIED' ) ;
#262 = DIRECTION ( 'NONE',  ( 1.000000000000000000, 0.000000000000000000, -5.876161773603444131E-15 ) ) ;
#263 = ORIENTED_EDGE ( 'NONE', *, *, #283, .F. ) ;
#264 = ADVANCED_FACE ( 'NONE', ( #145, #141 ), #87, .T. ) ;
#265 = PLANE ( 'NONE',  #233 ) ;
#266 = CONICAL_SURFACE ( 'NONE', #300, 1.999999999999996669, 0.7853981633974504994 ) ;
#267 = AXIS2_PLACEMENT_3D ( 'NONE', #101, #194, #369 ) ;
#268 = DIRECTION ( 'NONE',  ( 3.491481338843133355E-15, -0.000000000000000000, 1.000000000000000000 ) ) ;
#269 = DIRECTION ( 'NONE',  ( 3.491481338843133355E-15, -0.000000000000000000, 1.000000000000000000 ) ) ;
#270 = SECURITY_CLASSIFICATION ( '', '', #66 ) ;
#271 = VERTEX_POINT ( 'NONE', #121 ) ;
#272 = ORIENTED_EDGE ( 'NONE', *, *, #108, .T. ) ;
#273 = CARTESIAN_POINT ( 'NONE',  ( 1.035000000000031450, 0.000000000000000000, 9.299999999999998934 ) ) ;
#274 = AXIS2_PLACEMENT_3D ( 'NONE', #259, #357, #204 ) ;
#275 = CARTESIAN_POINT ( 'NONE',  ( 1.466422162314116009E-13, 0.000000000000000000, 42.00000000000000000 ) ) ;
#276 = PERSON_AND_ORGANIZATION ( #244, #63 ) ;
#277 = PLANE ( 'NONE',  #72 ) ;
#278 = EDGE_CURVE ( 'NONE', #220, #220, #159, .T. ) ;
#279 = PERSON_AND_ORGANIZATION_ROLE ( 'design_supplier' ) ;
#280 = DIRECTION ( 'NONE',  ( 3.491481338843133355E-15, -0.000000000000000000, 1.000000000000000000 ) ) ;
#281 = DIRECTION ( 'NONE',  ( 1.000000000000000000, 0.000000000000000000, -4.336808689942025625E-15 ) ) ;
#282 = CIRCLE ( 'NONE', #301, 1.584999999999999964 ) ;
#283 = EDGE_CURVE ( 'NONE', #33, #33, #393, .T. ) ;
#284 = DIRECTION ( 'NONE',  ( 3.491481338843133355E-15, -0.000000000000000000, 1.000000000000000000 ) ) ;
#285 = EDGE_LOOP ( 'NONE', ( #112 ) ) ;
#286 = PRODUCT_DEFINITION_SHAPE ( 'NONE', 'NONE',  #104 ) ;
#287 = APPROVAL_STATUS ( 'not_yet_approved' ) ;
#288 = FACE_OUTER_BOUND ( 'NONE', #49, .T. ) ;
#289 = ORIENTED_EDGE ( 'NONE', *, *, #28, .T. ) ;
#290 = FACE_OUTER_BOUND ( 'NONE', #285, .T. ) ;
#291 = ORIENTED_EDGE ( 'NONE', *, *, #325, .T. ) ;
#292 = LOCAL_TIME ( 10, 29, 54.00000000000000000, #311 ) ;
#293 = DIRECTION ( 'NONE',  ( 1.000000000000000000, 0.000000000000000000, -3.488971053077044435E-15 ) ) ;
#294 = CARTESIAN_POINT ( 'NONE',  ( 4.582569257231616473E-15, 0.000000000000000000, 1.312500000000001110 ) ) ;
#295 = ORIENTED_EDGE ( 'NONE', *, *, #251, .F. ) ;
#296 = CYLINDRICAL_SURFACE ( 'NONE', #313, 1.999999999999998224 ) ;
#297 = CYLINDRICAL_SURFACE ( 'NONE', #114, 1.584999999999999964 ) ;
#298 = ORIENTED_EDGE ( 'NONE', *, *, #82, .T. ) ;
#299 = EDGE_CURVE ( 'NONE', #271, #271, #375, .T. ) ;
#300 = AXIS2_PLACEMENT_3D ( 'NONE', #42, #170, #308 ) ;
#301 = AXIS2_PLACEMENT_3D ( 'NONE', #219, #92, #392 ) ;
#302 = EDGE_LOOP ( 'NONE', ( #103 ) ) ;
#303 = FACE_BOUND ( 'NONE', #356, .T. ) ;
#304 = CARTESIAN_POINT ( 'NONE',  ( 2.000000000000045741, 0.000000000000000000, 13.03308152689145238 ) ) ;
#305 = APPROVAL ( #366, 'UNSPECIFIED' ) ;
#306 = CONICAL_SURFACE ( 'NONE', #209, 1.180854811567259688, 1.047197551196609400 ) ;
#307 = PERSON_AND_ORGANIZATION_ROLE ( 'creator' ) ;
#308 = DIRECTION ( 'NONE',  ( -1.000000000000000000, 0.000000000000000000, 3.469446951953620105E-15 ) ) ;
#309 = EDGE_CURVE ( 'NONE', #335, #335, #47, .T. ) ;
#310 = CALENDAR_DATE ( 2023, 27, 9 ) ;
#311 = COORDINATED_UNIVERSAL_TIME_OFFSET ( 1, 0, .AHEAD. ) ;
#312 = FACE_OUTER_BOUND ( 'NONE', #107, .T. ) ;
#313 = AXIS2_PLACEMENT_3D ( 'NONE', #355, #26, #85 ) ;
#314 = ORIENTED_EDGE ( 'NONE', *, *, #148, .T. ) ;
#315 = PERSON_AND_ORGANIZATION ( #244, #63 ) ;
#316 = FACE_BOUND ( 'NONE', #27, .T. ) ;
#317 = EDGE_LOOP ( 'NONE', ( #388 ) ) ;
#318 = DIRECTION ( 'NONE',  ( -1.000000000000000000, 0.000000000000000000, 3.488600050268815712E-15 ) ) ;
#319 = ORIENTED_EDGE ( 'NONE', *, *, #148, .F. ) ;
#320 = CYLINDRICAL_SURFACE ( 'NONE', #9, 1.584999999999999964 ) ;
#321 = CIRCLE ( 'NONE', #193, 1.584999999999999964 ) ;
#322 = ORIENTED_EDGE ( 'NONE', *, *, #390, .F. ) ;
#323 = EDGE_LOOP ( 'NONE', ( #58 ) ) ;
#324 = DIRECTION ( 'NONE',  ( 3.491481338843133355E-15, -0.000000000000000000, 1.000000000000000000 ) ) ;
#325 = EDGE_CURVE ( 'NONE', #5, #5, #248, .T. ) ;
#326 = DIRECTION ( 'NONE',  ( 1.000000000000000000, 0.000000000000000000, -3.561630325073155207E-15 ) ) ;
#327 = CARTESIAN_POINT ( 'NONE',  ( 4.550476093876269979E-14, 0.000000000000000000, 13.03308152689145949 ) ) ;
#328 = EDGE_LOOP ( 'NONE', ( #291 ) ) ;
#329 = VERTEX_POINT ( 'NONE', #181 ) ;
#330 = EDGE_LOOP ( 'NONE', ( #381 ) ) ;
#331 = DIRECTION ( 'NONE',  ( -1.000000000000000000, 0.000000000000000000, 3.557003972823106077E-15 ) ) ;
#332 = CYLINDRICAL_SURFACE ( 'NONE', #30, 1.034999999999999476 ) ;
#333 = CIRCLE ( 'NONE', #126, 1.180854811567259688 ) ;
#334 = VERTEX_POINT ( 'NONE', #183 ) ;
#335 = VERTEX_POINT ( 'NONE', #61 ) ;
#336 = ADVANCED_FACE ( 'NONE', ( #59, #359 ), #332, .T. ) ;
#337 = DATE_AND_TIME ( #35, #210 ) ;
#338 = CIRCLE ( 'NONE', #152, 1.599999999999997202 ) ;
#339 = CALENDAR_DATE ( 2023, 27, 9 ) ;
#340 = APPROVAL_PERSON_ORGANIZATION ( #276, #261, #228 ) ;
#341 = DIRECTION ( 'NONE',  ( -3.491481338843133355E-15, 0.000000000000000000, -1.000000000000000000 ) ) ;
#342 = APPLICATION_PROTOCOL_DEFINITION ( 'international standard', 'config_control_design', 1994, #95 ) ;
#343 = DIRECTION ( 'NONE',  ( 3.491481338843133355E-15, -0.000000000000000000, 1.000000000000000000 ) ) ;
#344 = CARTESIAN_POINT ( 'NONE',  ( 4.888073874380387486E-15, 1.180854811567259466, 1.400000000000000133 ) ) ;
#345 = ORIENTED_EDGE ( 'NONE', *, *, #251, .T. ) ;
#346 = AXIS2_PLACEMENT_3D ( 'NONE', #84, #212, #326 ) ;
#347 = DIRECTION ( 'NONE',  ( 3.491481338843133355E-15, -0.000000000000000000, 1.000000000000000000 ) ) ;
#348 = CONICAL_SURFACE ( 'NONE', #39, 1.584999999999999964, 1.047197551196596521 ) ;
#349 = EDGE_LOOP ( 'NONE', ( #295 ) ) ;
#350 = PLANE ( 'NONE',  #363 ) ;
#351 = ADVANCED_FACE ( 'NONE', ( #245, #247 ), #306, .T. ) ;
#352 = CARTESIAN_POINT ( 'NONE',  ( 1.120183596212169716E-15, 0.000000000000000000, 0.3208333333333326931 ) ) ;
#353 = FACE_OUTER_BOUND ( 'NONE', #100, .T. ) ;
#354 = PRODUCT_DEFINITION_FORMATION_WITH_SPECIFIED_SOURCE ( 'ANY', '', #113, .NOT_KNOWN. ) ;
#355 = CARTESIAN_POINT ( 'NONE',  ( 1.466422162314116009E-13, 0.000000000000000000, 42.00000000000000000 ) ) ;
#356 = EDGE_LOOP ( 'NONE', ( #377 ) ) ;
#357 = DIRECTION ( 'NONE',  ( 3.491481338843133355E-15, -0.000000000000000000, 1.000000000000000000 ) ) ;
#358 = VERTEX_POINT ( 'NONE', #273 ) ;
#359 = FACE_OUTER_BOUND ( 'NONE', #328, .T. ) ;
#360 = CLOSED_SHELL ( 'NONE', ( #231, #264, #217, #249, #257, #351, #192, #374, #115, #46, #336, #8, #77, #255, #176, #178 ) ) ;
#361 = CARTESIAN_POINT ( 'NONE',  ( 1.069074173710962139, 0.000000000000000000, 9.558819045102511680 ) ) ;
#362 = CARTESIAN_POINT ( 'NONE',  ( 2.749541554338979745E-15, 0.000000000000000000, 0.7875000000000034195 ) ) ;
#363 = AXIS2_PLACEMENT_3D ( 'NONE', #344, #373, #134 ) ;
#364 = CIRCLE ( 'NONE', #384, 1.180854811567259466 ) ;
#365 = CARTESIAN_POINT ( 'NONE',  ( 1.180854811567261686, 0.000000000000000000, 0.6124999999999978240 ) ) ;
#366 = APPROVAL_STATUS ( 'not_yet_approved' ) ;
#367 = FACE_BOUND ( 'NONE', #180, .T. ) ;
#368 = PERSON_AND_ORGANIZATION ( #244, #63 ) ;
#369 = DIRECTION ( 'NONE',  ( 1.000000000000000000, 0.000000000000000000, 0.000000000000000000 ) ) ;
#370 = FACE_OUTER_BOUND ( 'NONE', #317, .T. ) ;
#371 = ORIENTED_EDGE ( 'NONE', *, *, #189, .T. ) ;
#372 = COORDINATED_UNIVERSAL_TIME_OFFSET ( 1, 0, .AHEAD. ) ;
#373 = DIRECTION ( 'NONE',  ( -3.491481338843133355E-15, 0.000000000000000000, -1.000000000000000000 ) ) ;
#374 = ADVANCED_FACE ( 'NONE', ( #303, #184 ), #348, .T. ) ;
#375 = CIRCLE ( 'NONE', #214, 1.180854811567259466 ) ;
#376 = FACE_OUTER_BOUND ( 'NONE', #323, .T. ) ;
#377 = ORIENTED_EDGE ( 'NONE', *, *, #229, .F. ) ;
#378 = FACE_OUTER_BOUND ( 'NONE', #53, .T. ) ;
#379 = CARTESIAN_POINT ( 'NONE',  ( 1.452456236958743728E-13, 0.000000000000000000, 41.60000000000000853 ) ) ;
#380 = CC_DESIGN_DATE_AND_TIME_ASSIGNMENT ( #232, #224, ( #104 ) ) ;
#381 = ORIENTED_EDGE ( 'NONE', *, *, #182, .T. ) ;
#382 = DIRECTION ( 'NONE',  ( 3.491481338843133355E-15, -0.000000000000000000, 1.000000000000000000 ) ) ;
#383 = CIRCLE ( 'NONE', #167, 1.584999999999999964 ) ;
#384 = AXIS2_PLACEMENT_3D ( 'NONE', #119, #22, #242 ) ;
#385 = CC_DESIGN_APPROVAL ( #305, ( #354 ) ) ;
#386 = CARTESIAN_POINT ( 'NONE',  ( 1.466422162314116009E-13, 0.000000000000000000, 42.00000000000000000 ) ) ;
#387 = EDGE_CURVE ( 'NONE', #86, #86, #74, .T. ) ;
#388 = ORIENTED_EDGE ( 'NONE', *, *, #299, .F. ) ;
#389 = DIRECTION ( 'NONE',  ( 1.000000000000000000, 0.000000000000000000, -3.557003972823106077E-15 ) ) ;
#390 = EDGE_CURVE ( 'NONE', #329, #329, #282, .T. ) ;
#391 = EDGE_LOOP ( 'NONE', ( #314 ) ) ;
#392 = DIRECTION ( 'NONE',  ( 1.000000000000000000, 0.000000000000000000, -3.488600050268815712E-15 ) ) ;
#393 = CIRCLE ( 'NONE', #226, 1.999999999999996669 ) ;
#394 = LOCAL_TIME ( 10, 29, 54.00000000000000000, #70 ) ;
#395 = CARTESIAN_POINT ( 'NONE',  ( 1.029300365904982417, 0.000000000000000000, -3.593783019621655251E-15 ) ) ;
ENDSEC;
END-ISO-10303-21;
