ISO-10303-21;
HEADER;
FILE_DESCRIPTION (( 'STEP AP203' ),
    '1' );
FILE_NAME ('960462.step',
    '2023-09-27T08:29:54',
    ( '' ),
    ( '' ),
    'SwSTEP 2.0',
    'SolidWorks 2022',
    '' );
FILE_SCHEMA (( 'CONFIG_CONTROL_DESIGN' ));
ENDSEC;

DATA;
#1 = FACE_OUTER_BOUND ( 'NONE', #337, .T. ) ;
#2 = EDGE_LOOP ( 'NONE', ( #63 ) ) ;
#3 = FACE_OUTER_BOUND ( 'NONE', #60, .T. ) ;
#4 = FACE_OUTER_BOUND ( 'NONE', #338, .T. ) ;
#5 = AXIS2_PLACEMENT_3D ( 'NONE', #144, #233, #226 ) ;
#6 = ORIENTED_EDGE ( 'NONE', *, *, #116, .T. ) ;
#7 = COORDINATED_UNIVERSAL_TIME_OFFSET ( 1, 0, .AHEAD. ) ;
#8 = DIRECTION ( 'NONE',  ( 1.000000000000000000, 0.000000000000000000, -3.450126754535575998E-15 ) ) ;
#9 = DIRECTION ( 'NONE',  ( 3.491481338843133355E-15, -0.000000000000000000, 1.000000000000000000 ) ) ;
#10 = ADVANCED_FACE ( 'NONE', ( #278, #1 ), #308, .T. ) ;
#11 = DIRECTION ( 'NONE',  ( 3.491481338843133355E-15, -0.000000000000000000, 1.000000000000000000 ) ) ;
#12 = DIRECTION ( 'NONE',  ( 1.000000000000000000, 0.000000000000000000, -3.469446951953620105E-15 ) ) ;
#13 = PERSON_AND_ORGANIZATION_ROLE ( 'creator' ) ;
#14 = FACE_OUTER_BOUND ( 'NONE', #93, .T. ) ;
#15 = AXIS2_PLACEMENT_3D ( 'NONE', #50, #194, #173 ) ;
#16 = CC_DESIGN_APPROVAL ( #148, ( #319 ) ) ;
#17 = FACE_OUTER_BOUND ( 'NONE', #127, .T. ) ;
#18 = CARTESIAN_POINT ( 'NONE',  ( 8.001311401515602357E-16, 0.000000000000000000, 0.2291666666666691832 ) ) ;
#19 = CARTESIAN_POINT ( 'NONE',  ( 3.491481338843133355E-15, 0.9113248654051853137, 1.000000000000000000 ) ) ;
#20 = APPROVAL_ROLE ( '' ) ;
#21 = DIRECTION ( 'NONE',  ( 3.491481338843133355E-15, -0.000000000000000000, 1.000000000000000000 ) ) ;
#22 = VERTEX_POINT ( 'NONE', #26 ) ;
#23 = PRODUCT_DEFINITION_SHAPE ( 'NONE', 'NONE',  #319 ) ;
#24 = EDGE_CURVE ( 'NONE', #100, #100, #123, .T. ) ;
#25 = APPROVAL_PERSON_ORGANIZATION ( #253, #386, #44 ) ;
#26 = CARTESIAN_POINT ( 'NONE',  ( 0.9113248654051886444, 0.000000000000000000, 0.9374999999999976685 ) ) ;
#27 = CLOSED_SHELL ( 'NONE', ( #301, #185, #164, #29, #219, #305, #390, #10, #182, #135, #296, #330, #162, #90, #121, #108 ) ) ;
#28 = AXIS2_PLACEMENT_3D ( 'NONE', #169, #11, #204 ) ;
#29 = ADVANCED_FACE ( 'NONE', ( #274, #392 ), #57, .T. ) ;
#30 = DIRECTION ( 'NONE',  ( -3.491481338843133355E-15, 0.000000000000000000, -1.000000000000000000 ) ) ;
#31 = EDGE_LOOP ( 'NONE', ( #126 ) ) ;
#32 = ORIENTED_EDGE ( 'NONE', *, *, #366, .T. ) ;
#33 = EDGE_LOOP ( 'NONE', ( #92 ) ) ;
#34 = FACE_OUTER_BOUND ( 'NONE', #222, .T. ) ;
#35 = EDGE_CURVE ( 'NONE', #98, #98, #364, .T. ) ;
#36 = ORIENTED_EDGE ( 'NONE', *, *, #193, .T. ) ;
#37 = APPROVAL_DATE_TIME ( #51, #386 ) ;
#38 = DIRECTION ( 'NONE',  ( 3.491481338843133355E-15, -0.000000000000000000, 1.000000000000000000 ) ) ;
#39 = CIRCLE ( 'NONE', #156, 0.9113248654051854247 ) ;
#40 = CARTESIAN_POINT ( 'NONE',  ( 1.452456236958743728E-13, 0.000000000000000000, 41.60000000000000853 ) ) ;
#41 = PERSON_AND_ORGANIZATION_ROLE ( 'classification_officer' ) ;
#42 = DIRECTION ( 'NONE',  ( 3.491481338843133355E-15, -0.000000000000000000, 1.000000000000000000 ) ) ;
#43 = DIRECTION ( 'NONE',  ( 3.491481338843133355E-15, -0.000000000000000000, 1.000000000000000000 ) ) ;
#44 = APPROVAL_ROLE ( '' ) ;
#45 = EDGE_CURVE ( 'NONE', #192, #192, #152, .T. ) ;
#46 = PLANE ( 'NONE',  #309 ) ;
#47 = FACE_OUTER_BOUND ( 'NONE', #186, .T. ) ;
#48 = DIRECTION ( 'NONE',  ( 1.000000000000000000, 0.000000000000000000, -3.480155121558409139E-15 ) ) ;
#49 = AXIS2_PLACEMENT_3D ( 'NONE', #18, #190, #136 ) ;
#50 = CARTESIAN_POINT ( 'NONE',  ( 1.466422162314116009E-13, 1.599999999999997202, 42.00000000000000000 ) ) ;
#51 = DATE_AND_TIME ( #287, #339 ) ;
#52 = VERTEX_POINT ( 'NONE', #58 ) ;
#53 = FACE_OUTER_BOUND ( 'NONE', #340, .T. ) ;
#54 = FACE_OUTER_BOUND ( 'NONE', #68, .T. ) ;
#55 = CARTESIAN_POINT ( 'NONE',  ( 0.8440741737109545006, 0.000000000000000000, 7.258819045102509193 ) ) ;
#56 = EDGE_LOOP ( 'NONE', ( #220 ) ) ;
#57 = CONICAL_SURFACE ( 'NONE', #85, 1.199999999999999956, 1.047197551196594079 ) ;
#58 = CARTESIAN_POINT ( 'NONE',  ( 1.200000000000000844, 0.000000000000000000, 0.2708333333333270976 ) ) ;
#59 = EDGE_CURVE ( 'NONE', #351, #351, #361, .T. ) ;
#60 = EDGE_LOOP ( 'NONE', ( #310 ) ) ;
#61 = APPROVAL ( #101, 'UNSPECIFIED' ) ;
#62 = DIRECTION ( 'NONE',  ( 3.491481338843133355E-15, -0.000000000000000000, 1.000000000000000000 ) ) ;
#63 = ORIENTED_EDGE ( 'NONE', *, *, #91, .F. ) ;
#64 = ORIENTED_EDGE ( 'NONE', *, *, #35, .F. ) ;
#65 = CIRCLE ( 'NONE', #345, 1.199999999999999956 ) ;
#66 = CONICAL_SURFACE ( 'NONE', #105, 0.9113248654051854247, 1.047197551196593857 ) ;
#67 = DIRECTION ( 'NONE',  ( 3.491481338843133355E-15, -0.000000000000000000, 1.000000000000000000 ) ) ;
#68 = EDGE_LOOP ( 'NONE', ( #184 ) ) ;
#69 = ADVANCED_BREP_SHAPE_REPRESENTATION ( '960462', ( #273, #212 ), #197 ) ;
#70 = CARTESIAN_POINT ( 'NONE',  ( 0.8100000000000239231, 0.000000000000000000, 6.999999999999996447 ) ) ;
#71 = CC_DESIGN_DATE_AND_TIME_ASSIGNMENT ( #348, #206, ( #319 ) ) ;
#72 = FACE_OUTER_BOUND ( 'NONE', #31, .T. ) ;
#73 = CALENDAR_DATE ( 2023, 27, 9 ) ;
#74 = CARTESIAN_POINT ( 'NONE',  ( 0.8030716899321302948, 0.000000000000000000, -2.803909819151251804E-15 ) ) ;
#75 = TOROIDAL_SURFACE ( 'NONE', #331, 1.809999999999999387, 1.000000000000000000 ) ;
#76 = DIRECTION ( 'NONE',  ( -3.491481338843133355E-15, 0.000000000000000000, -1.000000000000000000 ) ) ;
#77 = SECURITY_CLASSIFICATION_LEVEL ( 'unclassified' ) ;
#78 = DIRECTION ( 'NONE',  ( 1.000000000000000000, 0.000000000000000000, -3.491481338843133355E-15 ) ) ;
#79 = FACE_BOUND ( 'NONE', #246, .T. ) ;
#80 = EDGE_CURVE ( 'NONE', #228, #228, #393, .T. ) ;
#81 = PERSON_AND_ORGANIZATION ( #120, #208 ) ;
#82 = VERTEX_POINT ( 'NONE', #55 ) ;
#83 = DIRECTION ( 'NONE',  ( 1.000000000000000000, 0.000000000000000000, -3.469446951953617344E-15 ) ) ;
#84 = COORDINATED_UNIVERSAL_TIME_OFFSET ( 1, 0, .AHEAD. ) ;
#85 = AXIS2_PLACEMENT_3D ( 'NONE', #124, #142, #200 ) ;
#86 = DIRECTION ( 'NONE',  ( -1.000000000000000000, 0.000000000000000000, 3.491481338843133355E-15 ) ) ;
#87 = COORDINATED_UNIVERSAL_TIME_OFFSET ( 1, 0, .AHEAD. ) ;
#88 = CIRCLE ( 'NONE', #315, 0.8440741737109290765 ) ;
#89 = AXIS2_PLACEMENT_3D ( 'NONE', #99, #290, #83 ) ;
#90 = ADVANCED_FACE ( 'NONE', ( #72, #17 ), #381, .T. ) ;
#91 = EDGE_CURVE ( 'NONE', #82, #82, #88, .T. ) ;
#92 = ORIENTED_EDGE ( 'NONE', *, *, #242, .F. ) ;
#93 = EDGE_LOOP ( 'NONE', ( #155 ) ) ;
#94 = AXIS2_PLACEMENT_3D ( 'NONE', #378, #209, #106 ) ;
#95 = CC_DESIGN_APPROVAL ( #386, ( #394 ) ) ;
#96 = DIRECTION ( 'NONE',  ( 1.000000000000000000, 0.000000000000000000, -3.450126754535575998E-15 ) ) ;
#97 = EDGE_LOOP ( 'NONE', ( #313 ) ) ;
#98 = VERTEX_POINT ( 'NONE', #70 ) ;
#99 = CARTESIAN_POINT ( 'NONE',  ( 1.466422162314116009E-13, 0.000000000000000000, 42.00000000000000000 ) ) ;
#100 = VERTEX_POINT ( 'NONE', #235 ) ;
#101 = APPROVAL_STATUS ( 'not_yet_approved' ) ;
#102 = APPLICATION_CONTEXT ( 'configuration controlled 3d designs of mechanical parts and assemblies' ) ;
#103 = AXIS2_PLACEMENT_3D ( 'NONE', #145, #265, #327 ) ;
#104 = CARTESIAN_POINT ( 'NONE',  ( 1.466422162314116009E-13, 0.000000000000000000, 42.00000000000000000 ) ) ;
#105 = AXIS2_PLACEMENT_3D ( 'NONE', #285, #42, #96 ) ;
#106 = DIRECTION ( 'NONE',  ( 1.000000000000000000, 0.000000000000000000, -3.082768428425283439E-15 ) ) ;
#107 = CYLINDRICAL_SURFACE ( 'NONE', #370, 1.199999999999999956 ) ;
#108 = ADVANCED_FACE ( 'NONE', ( #325 ), #286, .F. ) ;
#109 = DIRECTION ( 'NONE',  ( 1.000000000000000000, 0.000000000000000000, -3.491481338843133355E-15 ) ) ;
#110 = PERSON_AND_ORGANIZATION ( #120, #208 ) ;
#111 = FACE_OUTER_BOUND ( 'NONE', #365, .T. ) ;
#112 = CALENDAR_DATE ( 2023, 27, 9 ) ;
#113 = DIRECTION ( 'NONE',  ( 3.491481338843133355E-15, -0.000000000000000000, 1.000000000000000000 ) ) ;
#114 = VERTEX_POINT ( 'NONE', #236 ) ;
#115 = AXIS2_PLACEMENT_3D ( 'NONE', #343, #234, #227 ) ;
#116 = EDGE_CURVE ( 'NONE', #241, #241, #384, .T. ) ;
#117 = MECHANICAL_CONTEXT ( 'NONE', #102, 'mechanical' ) ;
#118 = EDGE_CURVE ( 'NONE', #52, #52, #65, .T. ) ;
#119 = PRODUCT_RELATED_PRODUCT_CATEGORY ( 'detail', '', ( #358 ) ) ;
#120 = PERSON ( 'UNSPECIFIED', 'UNSPECIFIED', 'UNSPECIFIED', ('UNSPECIFIED'), ('UNSPECIFIED'), ('UNSPECIFIED') ) ;
#121 = ADVANCED_FACE ( 'NONE', ( #79, #202 ), #334, .T. ) ;
#122 = EDGE_LOOP ( 'NONE', ( #32 ) ) ;
#123 = CIRCLE ( 'NONE', #247, 0.9113248654051853137 ) ;
#124 = CARTESIAN_POINT ( 'NONE',  ( 9.456095292700081182E-16, 0.000000000000000000, 0.2708333333333312609 ) ) ;
#125 = ORIENTED_EDGE ( 'NONE', *, *, #59, .T. ) ;
#126 = ORIENTED_EDGE ( 'NONE', *, *, #116, .F. ) ;
#127 = EDGE_LOOP ( 'NONE', ( #367 ) ) ;
#128 = AXIS2_PLACEMENT_3D ( 'NONE', #322, #76, #255 ) ;
#129 = FACE_OUTER_BOUND ( 'NONE', #395, .T. ) ;
#130 = CARTESIAN_POINT ( 'NONE',  ( 2.691350198691576176E-15, 0.000000000000000000, 0.7708333333333317050 ) ) ;
#131 = SHAPE_DEFINITION_REPRESENTATION ( #23, #69 ) ;
#132 = CARTESIAN_POINT ( 'NONE',  ( 1.466422162314116009E-13, 0.000000000000000000, 42.00000000000000000 ) ) ;
#133 = DIRECTION ( 'NONE',  ( 1.000000000000000000, 0.000000000000000000, -3.478481970057660322E-15 ) ) ;
#134 = DATE_TIME_ROLE ( 'classification_date' ) ;
#135 = ADVANCED_FACE ( 'NONE', ( #237, #258 ), #294, .F. ) ;
#136 = DIRECTION ( 'NONE',  ( 1.000000000000000000, 0.000000000000000000, -3.501069515317774866E-15 ) ) ;
#137 = FACE_BOUND ( 'NONE', #177, .T. ) ;
#138 = COORDINATED_UNIVERSAL_TIME_OFFSET ( 1, 0, .AHEAD. ) ;
#139 = AXIS2_PLACEMENT_3D ( 'NONE', #130, #30, #363 ) ;
#140 = CARTESIAN_POINT ( 'NONE',  ( 4.040619065322782736E-14, 0.000000000000000000, 11.57279295859447643 ) ) ;
#141 = APPROVAL_PERSON_ORGANIZATION ( #110, #148, #20 ) ;
#142 = DIRECTION ( 'NONE',  ( -3.491481338843133355E-15, 0.000000000000000000, -1.000000000000000000 ) ) ;
#143 = DATE_AND_TIME ( #73, #299 ) ;
#144 = CARTESIAN_POINT ( 'NONE',  ( 2.545871809573128590E-15, 0.000000000000000000, 0.7291666666666696273 ) ) ;
#145 = CARTESIAN_POINT ( 'NONE',  ( 1.466422162314116009E-13, 0.000000000000000000, 42.00000000000000000 ) ) ;
#146 = CALENDAR_DATE ( 2023, 27, 9 ) ;
#147 = CARTESIAN_POINT ( 'NONE',  ( 1.600000000000143752, 0.000000000000000000, 41.99999999999999289 ) ) ;
#148 = APPROVAL ( #207, 'UNSPECIFIED' ) ;
#149 = FACE_BOUND ( 'NONE', #56, .T. ) ;
#150 = APPLICATION_PROTOCOL_DEFINITION ( 'international standard', 'config_control_design', 1994, #102 ) ;
#151 = ORIENTED_EDGE ( 'NONE', *, *, #45, .F. ) ;
#152 = CIRCLE ( 'NONE', #195, 0.9113248654051853137 ) ;
#153 = CIRCLE ( 'NONE', #5, 1.199999999999999956 ) ;
#154 = EDGE_LOOP ( 'NONE', ( #284 ) ) ;
#155 = ORIENTED_EDGE ( 'NONE', *, *, #288, .T. ) ;
#156 = AXIS2_PLACEMENT_3D ( 'NONE', #160, #282, #8 ) ;
#157 = ORIENTED_EDGE ( 'NONE', *, *, #242, .T. ) ;
#158 = DIRECTION ( 'NONE',  ( 3.491481338843133355E-15, -0.000000000000000000, 1.000000000000000000 ) ) ;
#159 = ORIENTED_EDGE ( 'NONE', *, *, #24, .F. ) ;
#160 = CARTESIAN_POINT ( 'NONE',  ( 3.273263755165440676E-15, 0.000000000000000000, 0.9375000000000008882 ) ) ;
#161 = ORIENTED_EDGE ( 'NONE', *, *, #118, .F. ) ;
#162 = ADVANCED_FACE ( 'NONE', ( #318, #137 ), #230, .T. ) ;
#163 = CARTESIAN_POINT ( 'NONE',  ( 1.200000000000002398, 0.000000000000000000, 0.7708333333333274862 ) ) ;
#164 = ADVANCED_FACE ( 'NONE', ( #47, #297 ), #170, .T. ) ;
#165 = UNCERTAINTY_MEASURE_WITH_UNIT (LENGTH_MEASURE( 1.000000000000000082E-05 ), #383, 'distance_accuracy_value', 'NONE');
#166 = DIRECTION ( 'NONE',  ( 1.000000000000000000, 0.000000000000000000, -3.569096642623010007E-15 ) ) ;
#167 = DATE_AND_TIME ( #379, #187 ) ;
#168 = CARTESIAN_POINT ( 'NONE',  ( 2.534403123801455300E-14, 0.000000000000000000, 7.258819045102511858 ) ) ;
#169 = CARTESIAN_POINT ( 'NONE',  ( 1.466422162314116009E-13, 0.000000000000000000, 42.00000000000000000 ) ) ;
#170 = CYLINDRICAL_SURFACE ( 'NONE', #103, 1.199999999999999956 ) ;
#171 = DIRECTION ( 'NONE',  ( 1.000000000000000000, 0.000000000000000000, 0.000000000000000000 ) ) ;
#172 = FACE_OUTER_BOUND ( 'NONE', #33, .T. ) ;
#173 = DIRECTION ( 'NONE',  ( -1.000000000000000000, 0.000000000000000000, 3.491481338843133355E-15 ) ) ;
#174 = PERSON_AND_ORGANIZATION ( #120, #208 ) ;
#175 = VERTEX_POINT ( 'NONE', #178 ) ;
#176 = CYLINDRICAL_SURFACE ( 'NONE', #271, 0.9113248654051853137 ) ;
#177 = EDGE_LOOP ( 'NONE', ( #341 ) ) ;
#178 = CARTESIAN_POINT ( 'NONE',  ( 0.8100000000000034950, 0.000000000000000000, 0.9999999999999981126 ) ) ;
#179 = AXIS2_PLACEMENT_3D ( 'NONE', #382, #21, #109 ) ;
#180 = AXIS2_PLACEMENT_3D ( 'NONE', #353, #267, #279 ) ;
#181 =( NAMED_UNIT ( * ) PLANE_ANGLE_UNIT ( ) SI_UNIT ( $, .RADIAN. ) );
#182 = ADVANCED_FACE ( 'NONE', ( #111, #53 ), #176, .T. ) ;
#183 = DIRECTION ( 'NONE',  ( 1.000000000000000000, 0.000000000000000000, -3.509611698579293003E-15 ) ) ;
#184 = ORIENTED_EDGE ( 'NONE', *, *, #193, .F. ) ;
#185 = ADVANCED_FACE ( 'NONE', ( #291, #149 ), #303, .T. ) ;
#186 = EDGE_LOOP ( 'NONE', ( #161 ) ) ;
#187 = LOCAL_TIME ( 10, 29, 54.00000000000000000, #259 ) ;
#188 = ORIENTED_EDGE ( 'NONE', *, *, #374, .F. ) ;
#189 = CARTESIAN_POINT ( 'NONE',  ( 1.466422162314116009E-13, 0.000000000000000000, 42.00000000000000000 ) ) ;
#190 = DIRECTION ( 'NONE',  ( 3.491481338843133355E-15, -0.000000000000000000, 1.000000000000000000 ) ) ;
#191 = ORIENTED_EDGE ( 'NONE', *, *, #80, .F. ) ;
#192 = VERTEX_POINT ( 'NONE', #314 ) ;
#193 = EDGE_CURVE ( 'NONE', #356, #356, #216, .T. ) ;
#194 = DIRECTION ( 'NONE',  ( -3.491481338843133355E-15, 0.000000000000000000, -1.000000000000000000 ) ) ;
#195 = AXIS2_PLACEMENT_3D ( 'NONE', #375, #352, #166 ) ;
#196 = PERSON_AND_ORGANIZATION_ROLE ( 'design_supplier' ) ;
#197 =( GEOMETRIC_REPRESENTATION_CONTEXT ( 3 ) GLOBAL_UNCERTAINTY_ASSIGNED_CONTEXT ( ( #165 ) ) GLOBAL_UNIT_ASSIGNED_CONTEXT ( ( #383, #181, #359 ) ) REPRESENTATION_CONTEXT ( 'NONE', 'WORKASPACE' ) );
#198 = DIRECTION ( 'NONE',  ( 3.491481338843133355E-15, -0.000000000000000000, 1.000000000000000000 ) ) ;
#199 = CC_DESIGN_PERSON_AND_ORGANIZATION_ASSIGNMENT ( #323, #41, ( #394 ) ) ;
#200 = DIRECTION ( 'NONE',  ( -1.000000000000000000, 0.000000000000000000, 3.478481970057660322E-15 ) ) ;
#201 = CARTESIAN_POINT ( 'NONE',  ( 2.444036937190193349E-14, 0.000000000000000000, 7.000000000000000000 ) ) ;
#202 = FACE_OUTER_BOUND ( 'NONE', #213, .T. ) ;
#203 = APPROVAL_DATE_TIME ( #316, #61 ) ;
#204 = DIRECTION ( 'NONE',  ( 1.000000000000000000, 0.000000000000000000, -4.336808689942025625E-15 ) ) ;
#205 = DIRECTION ( 'NONE',  ( 3.491481338843133355E-15, -0.000000000000000000, 1.000000000000000000 ) ) ;
#206 = DATE_TIME_ROLE ( 'creation_date' ) ;
#207 = APPROVAL_STATUS ( 'not_yet_approved' ) ;
#208 = ORGANIZATION ( 'UNSPECIFIED', 'UNSPECIFIED', '' ) ;
#209 = DIRECTION ( 'NONE',  ( 3.491481338843133355E-15, -0.000000000000000000, 1.000000000000000000 ) ) ;
#210 = CARTESIAN_POINT ( 'NONE',  ( 0.9113248654051873121, 0.000000000000000000, 0.5624999999999973355 ) ) ;
#211 = PERSON_AND_ORGANIZATION ( #120, #208 ) ;
#212 = AXIS2_PLACEMENT_3D ( 'NONE', #298, #354, #389 ) ;
#213 = EDGE_LOOP ( 'NONE', ( #6 ) ) ;
#214 = ORIENTED_EDGE ( 'NONE', *, *, #366, .F. ) ;
#215 = CC_DESIGN_PERSON_AND_ORGANIZATION_ASSIGNMENT ( #211, #269, ( #358 ) ) ;
#216 = CIRCLE ( 'NONE', #304, 0.9113248654051854247 ) ;
#217 = CC_DESIGN_SECURITY_CLASSIFICATION ( #394, ( #249 ) ) ;
#218 = ORIENTED_EDGE ( 'NONE', *, *, #288, .F. ) ;
#219 = ADVANCED_FACE ( 'NONE', ( #54, #3 ), #250, .T. ) ;
#220 = ORIENTED_EDGE ( 'NONE', *, *, #80, .T. ) ;
#221 = ORIENTED_EDGE ( 'NONE', *, *, #388, .T. ) ;
#222 = EDGE_LOOP ( 'NONE', ( #191 ) ) ;
#223 = CIRCLE ( 'NONE', #276, 0.8100000000000000533 ) ;
#224 = FACE_OUTER_BOUND ( 'NONE', #311, .T. ) ;
#225 = ORIENTED_EDGE ( 'NONE', *, *, #35, .T. ) ;
#226 = DIRECTION ( 'NONE',  ( 1.000000000000000000, 0.000000000000000000, -3.523657060577889411E-15 ) ) ;
#227 = DIRECTION ( 'NONE',  ( 1.000000000000000000, 0.000000000000000000, -3.523657060577889411E-15 ) ) ;
#228 = VERTEX_POINT ( 'NONE', #74 ) ;
#229 = DIRECTION ( 'NONE',  ( 1.000000000000000000, 0.000000000000000000, -3.212450881438533818E-15 ) ) ;
#230 = CONICAL_SURFACE ( 'NONE', #94, 0.8440741737109290765, 0.2617993877991427465 ) ;
#231 = APPROVAL_STATUS ( 'not_yet_approved' ) ;
#232 = CIRCLE ( 'NONE', #28, 1.599999999999997202 ) ;
#233 = DIRECTION ( 'NONE',  ( 3.491481338843133355E-15, -0.000000000000000000, 1.000000000000000000 ) ) ;
#234 = DIRECTION ( 'NONE',  ( 3.491481338843133355E-15, -0.000000000000000000, 1.000000000000000000 ) ) ;
#235 = CARTESIAN_POINT ( 'NONE',  ( 0.9113248654051867570, 0.000000000000000000, 0.4374999999999971689 ) ) ;
#236 = CARTESIAN_POINT ( 'NONE',  ( 1.200000000000000844, 0.000000000000000000, 0.2291666666666649921 ) ) ;
#237 = FACE_BOUND ( 'NONE', #270, .T. ) ;
#238 = APPLICATION_CONTEXT ( 'configuration controlled 3d designs of mechanical parts and assemblies' ) ;
#239 = DIRECTION ( 'NONE',  ( 1.000000000000000000, 0.000000000000000000, -3.450126754535575998E-15 ) ) ;
#240 = CIRCLE ( 'NONE', #49, 1.199999999999999956 ) ;
#241 = VERTEX_POINT ( 'NONE', #326 ) ;
#242 = EDGE_CURVE ( 'NONE', #387, #387, #153, .T. ) ;
#243 = AXIS2_PLACEMENT_3D ( 'NONE', #349, #317, #376 ) ;
#244 = EDGE_LOOP ( 'NONE', ( #391 ) ) ;
#245 = EDGE_LOOP ( 'NONE', ( #214 ) ) ;
#246 = EDGE_LOOP ( 'NONE', ( #307 ) ) ;
#247 = AXIS2_PLACEMENT_3D ( 'NONE', #336, #62, #183 ) ;
#248 = EDGE_LOOP ( 'NONE', ( #159 ) ) ;
#249 = PRODUCT_DEFINITION_FORMATION_WITH_SPECIFIED_SOURCE ( 'ANY', '', #358, .NOT_KNOWN. ) ;
#250 = CYLINDRICAL_SURFACE ( 'NONE', #346, 0.9113248654051853137 ) ;
#251 = DIRECTION ( 'NONE',  ( 3.491481338843133355E-15, -0.000000000000000000, 1.000000000000000000 ) ) ;
#252 = DIRECTION ( 'NONE',  ( 1.000000000000000000, 0.000000000000000000, -3.082768428425283439E-15 ) ) ;
#253 = PERSON_AND_ORGANIZATION ( #120, #208 ) ;
#254 = DIRECTION ( 'NONE',  ( 1.000000000000000000, 0.000000000000000000, -3.491481338843133750E-15 ) ) ;
#255 = DIRECTION ( 'NONE',  ( -1.000000000000000000, 0.000000000000000000, 3.469446951953620105E-15 ) ) ;
#256 = PERSON_AND_ORGANIZATION ( #120, #208 ) ;
#257 = DIRECTION ( 'NONE',  ( 1.000000000000000000, 0.000000000000000000, -3.469446951953614189E-15 ) ) ;
#258 = FACE_OUTER_BOUND ( 'NONE', #97, .T. ) ;
#259 = COORDINATED_UNIVERSAL_TIME_OFFSET ( 1, 0, .AHEAD. ) ;
#260 = APPROVAL_PERSON_ORGANIZATION ( #174, #61, #320 ) ;
#261 = CARTESIAN_POINT ( 'NONE',  ( 3.491481338843136511E-15, 0.000000000000000000, 1.000000000000000888 ) ) ;
#262 = CARTESIAN_POINT ( 'NONE',  ( 2.444036937190193033E-14, 0.000000000000000000, 6.999999999999999112 ) ) ;
#263 = DIRECTION ( 'NONE',  ( 3.491481338843133355E-15, -0.000000000000000000, 1.000000000000000000 ) ) ;
#264 = CC_DESIGN_DATE_AND_TIME_ASSIGNMENT ( #167, #134, ( #394 ) ) ;
#265 = DIRECTION ( 'NONE',  ( 3.491481338843133355E-15, -0.000000000000000000, 1.000000000000000000 ) ) ;
#266 = CARTESIAN_POINT ( 'NONE',  ( 2.000000000000040412, 0.000000000000000000, 11.57279295859446933 ) ) ;
#267 = DIRECTION ( 'NONE',  ( 3.491481338843133355E-15, -0.000000000000000000, 1.000000000000000000 ) ) ;
#268 = AXIS2_PLACEMENT_3D ( 'NONE', #262, #43, #229 ) ;
#269 = PERSON_AND_ORGANIZATION_ROLE ( 'design_owner' ) ;
#270 = EDGE_LOOP ( 'NONE', ( #218 ) ) ;
#271 = AXIS2_PLACEMENT_3D ( 'NONE', #189, #158, #171 ) ;
#272 = CC_DESIGN_APPROVAL ( #61, ( #249 ) ) ;
#273 = MANIFOLD_SOLID_BREP ( 'Corps-Déplacer/Copier1', #27 ) ;
#274 = FACE_BOUND ( 'NONE', #248, .T. ) ;
#275 = AXIS2_PLACEMENT_3D ( 'NONE', #40, #9, #12 ) ;
#276 = AXIS2_PLACEMENT_3D ( 'NONE', #261, #198, #48 ) ;
#277 = EDGE_LOOP ( 'NONE', ( #36 ) ) ;
#278 = FACE_BOUND ( 'NONE', #360, .T. ) ;
#279 = DIRECTION ( 'NONE',  ( 1.000000000000000000, 0.000000000000000000, -3.491481338843133355E-15 ) ) ;
#280 = ORIENTED_EDGE ( 'NONE', *, *, #59, .F. ) ;
#281 = CARTESIAN_POINT ( 'NONE',  ( 1.963958253099264484E-15, 0.000000000000000000, 0.5625000000000004441 ) ) ;
#282 = DIRECTION ( 'NONE',  ( 3.491481338843133355E-15, -0.000000000000000000, 1.000000000000000000 ) ) ;
#283 = EDGE_CURVE ( 'NONE', #302, #302, #232, .T. ) ;
#284 = ORIENTED_EDGE ( 'NONE', *, *, #118, .T. ) ;
#285 = CARTESIAN_POINT ( 'NONE',  ( 1.963958253099264484E-15, 0.000000000000000000, 0.5625000000000004441 ) ) ;
#286 = PLANE ( 'NONE',  #15 ) ;
#287 = CALENDAR_DATE ( 2023, 27, 9 ) ;
#288 = EDGE_CURVE ( 'NONE', #175, #175, #223, .T. ) ;
#289 = DIRECTION ( 'NONE',  ( 1.000000000000000000, 0.000000000000000000, 0.000000000000000000 ) ) ;
#290 = DIRECTION ( 'NONE',  ( 3.491481338843133355E-15, -0.000000000000000000, 1.000000000000000000 ) ) ;
#291 = FACE_OUTER_BOUND ( 'NONE', #245, .T. ) ;
#292 = AXIS2_PLACEMENT_3D ( 'NONE', #140, #312, #257 ) ;
#293 = FACE_BOUND ( 'NONE', #277, .T. ) ;
#294 = PLANE ( 'NONE',  #369 ) ;
#295 = PERSON_AND_ORGANIZATION ( #120, #208 ) ;
#296 = ADVANCED_FACE ( 'NONE', ( #224, #14 ), #321, .T. ) ;
#297 = FACE_OUTER_BOUND ( 'NONE', #122, .T. ) ;
#298 = CARTESIAN_POINT ( 'NONE',  ( 0.000000000000000000, 0.000000000000000000, 0.000000000000000000 ) ) ;
#299 = LOCAL_TIME ( 10, 29, 54.00000000000000000, #87 ) ;
#300 = VERTEX_POINT ( 'NONE', #266 ) ;
#301 = ADVANCED_FACE ( 'NONE', ( #34 ), #46, .F. ) ;
#302 = VERTEX_POINT ( 'NONE', #147 ) ;
#303 = CONICAL_SURFACE ( 'NONE', #180, 0.8030716899321302948, 1.047197551196594967 ) ;
#304 = AXIS2_PLACEMENT_3D ( 'NONE', #281, #113, #239 ) ;
#305 = ADVANCED_FACE ( 'NONE', ( #172, #293 ), #66, .T. ) ;
#306 = CC_DESIGN_PERSON_AND_ORGANIZATION_ASSIGNMENT ( #81, #344, ( #319 ) ) ;
#307 = ORIENTED_EDGE ( 'NONE', *, *, #283, .F. ) ;
#308 = CONICAL_SURFACE ( 'NONE', #139, 1.199999999999999956, 1.047197551196593857 ) ;
#309 = AXIS2_PLACEMENT_3D ( 'NONE', #324, #263, #78 ) ;
#310 = ORIENTED_EDGE ( 'NONE', *, *, #24, .T. ) ;
#311 = EDGE_LOOP ( 'NONE', ( #64 ) ) ;
#312 = DIRECTION ( 'NONE',  ( 3.491481338843133355E-15, -0.000000000000000000, 1.000000000000000000 ) ) ;
#313 = ORIENTED_EDGE ( 'NONE', *, *, #45, .T. ) ;
#314 = CARTESIAN_POINT ( 'NONE',  ( 0.9113248654051887554, 0.000000000000000000, 0.9999999999999976685 ) ) ;
#315 = AXIS2_PLACEMENT_3D ( 'NONE', #168, #205, #252 ) ;
#316 = DATE_AND_TIME ( #112, #362 ) ;
#317 = DIRECTION ( 'NONE',  ( 3.491481338843133355E-15, -0.000000000000000000, 1.000000000000000000 ) ) ;
#318 = FACE_OUTER_BOUND ( 'NONE', #371, .T. ) ;
#319 = PRODUCT_DEFINITION ( 'UNKNOWN', '', #249, #373 ) ;
#320 = APPROVAL_ROLE ( '' ) ;
#321 = CYLINDRICAL_SURFACE ( 'NONE', #243, 0.8099999999999997202 ) ;
#322 = CARTESIAN_POINT ( 'NONE',  ( 1.452456236958743728E-13, 0.000000000000000000, 41.60000000000000853 ) ) ;
#323 = PERSON_AND_ORGANIZATION ( #120, #208 ) ;
#324 = CARTESIAN_POINT ( 'NONE',  ( -8.228390353899957773E-33, 0.000000000000000000, -2.356704663535836154E-18 ) ) ;
#325 = FACE_OUTER_BOUND ( 'NONE', #244, .T. ) ;
#326 = CARTESIAN_POINT ( 'NONE',  ( 2.000000000000141664, 0.000000000000000000, 41.60000000000000142 ) ) ;
#327 = DIRECTION ( 'NONE',  ( 1.000000000000000000, 0.000000000000000000, -5.782411586589357244E-15 ) ) ;
#328 = CARTESIAN_POINT ( 'NONE',  ( 1.200000000000002398, 0.000000000000000000, 0.7291666666666654084 ) ) ;
#329 = CC_DESIGN_PERSON_AND_ORGANIZATION_ASSIGNMENT ( #256, #196, ( #249 ) ) ;
#330 = ADVANCED_FACE ( 'NONE', ( #342, #129 ), #75, .F. ) ;
#331 = AXIS2_PLACEMENT_3D ( 'NONE', #201, #67, #254 ) ;
#332 = ORIENTED_EDGE ( 'NONE', *, *, #388, .F. ) ;
#333 = CC_DESIGN_PERSON_AND_ORGANIZATION_ASSIGNMENT ( #295, #13, ( #249 ) ) ;
#334 = CONICAL_SURFACE ( 'NONE', #128, 1.999999999999996669, 0.7853981633974504994 ) ;
#335 = CIRCLE ( 'NONE', #292, 2.000000000000000000 ) ;
#336 = CARTESIAN_POINT ( 'NONE',  ( 1.527523085743872223E-15, 0.000000000000000000, 0.4375000000000003886 ) ) ;
#337 = EDGE_LOOP ( 'NONE', ( #125 ) ) ;
#338 = EDGE_LOOP ( 'NONE', ( #280 ) ) ;
#339 = LOCAL_TIME ( 10, 29, 54.00000000000000000, #7 ) ;
#340 = EDGE_LOOP ( 'NONE', ( #221 ) ) ;
#341 = ORIENTED_EDGE ( 'NONE', *, *, #91, .T. ) ;
#342 = FACE_OUTER_BOUND ( 'NONE', #2, .T. ) ;
#343 = CARTESIAN_POINT ( 'NONE',  ( 2.691350198691576176E-15, 0.000000000000000000, 0.7708333333333317050 ) ) ;
#344 = PERSON_AND_ORGANIZATION_ROLE ( 'creator' ) ;
#345 = AXIS2_PLACEMENT_3D ( 'NONE', #350, #347, #133 ) ;
#346 = AXIS2_PLACEMENT_3D ( 'NONE', #104, #38, #289 ) ;
#347 = DIRECTION ( 'NONE',  ( 3.491481338843133355E-15, -0.000000000000000000, 1.000000000000000000 ) ) ;
#348 = DATE_AND_TIME ( #146, #385 ) ;
#349 = CARTESIAN_POINT ( 'NONE',  ( 1.466422162314116009E-13, 0.000000000000000000, 42.00000000000000000 ) ) ;
#350 = CARTESIAN_POINT ( 'NONE',  ( 9.456095292700081182E-16, 0.000000000000000000, 0.2708333333333312609 ) ) ;
#351 = VERTEX_POINT ( 'NONE', #163 ) ;
#352 = DIRECTION ( 'NONE',  ( 3.491481338843133355E-15, -0.000000000000000000, 1.000000000000000000 ) ) ;
#353 = CARTESIAN_POINT ( 'NONE',  ( 0.000000000000000000, 0.000000000000000000, 0.000000000000000000 ) ) ;
#354 = DIRECTION ( 'NONE',  ( 0.000000000000000000, 0.000000000000000000, 1.000000000000000000 ) ) ;
#355 = DIRECTION ( 'NONE',  ( -3.491481338843133355E-15, 0.000000000000000000, -1.000000000000000000 ) ) ;
#356 = VERTEX_POINT ( 'NONE', #210 ) ;
#357 = APPLICATION_PROTOCOL_DEFINITION ( 'international standard', 'config_control_design', 1994, #238 ) ;
#358 = PRODUCT ( '960462', '960462', '', ( #117 ) ) ;
#359 =( NAMED_UNIT ( * ) SI_UNIT ( $, .STERADIAN. ) SOLID_ANGLE_UNIT ( ) );
#360 = EDGE_LOOP ( 'NONE', ( #332 ) ) ;
#361 = CIRCLE ( 'NONE', #115, 1.199999999999999956 ) ;
#362 = LOCAL_TIME ( 10, 29, 54.00000000000000000, #84 ) ;
#363 = DIRECTION ( 'NONE',  ( -1.000000000000000000, 0.000000000000000000, 3.523657060577889411E-15 ) ) ;
#364 = CIRCLE ( 'NONE', #268, 0.8099999999999994982 ) ;
#365 = EDGE_LOOP ( 'NONE', ( #151 ) ) ;
#366 = EDGE_CURVE ( 'NONE', #114, #114, #240, .T. ) ;
#367 = ORIENTED_EDGE ( 'NONE', *, *, #374, .T. ) ;
#368 = EDGE_LOOP ( 'NONE', ( #157 ) ) ;
#369 = AXIS2_PLACEMENT_3D ( 'NONE', #19, #355, #86 ) ;
#370 = AXIS2_PLACEMENT_3D ( 'NONE', #132, #251, #372 ) ;
#371 = EDGE_LOOP ( 'NONE', ( #188 ) ) ;
#372 = DIRECTION ( 'NONE',  ( 1.000000000000000000, 0.000000000000000000, -5.782411586589357244E-15 ) ) ;
#373 = DESIGN_CONTEXT ( 'detailed design', #238, 'design' ) ;
#374 = EDGE_CURVE ( 'NONE', #300, #300, #335, .T. ) ;
#375 = CARTESIAN_POINT ( 'NONE',  ( 3.491481338843136511E-15, 0.000000000000000000, 1.000000000000000888 ) ) ;
#376 = DIRECTION ( 'NONE',  ( 1.000000000000000000, 0.000000000000000000, 0.000000000000000000 ) ) ;
#377 = APPROVAL_DATE_TIME ( #143, #148 ) ;
#378 = CARTESIAN_POINT ( 'NONE',  ( 2.534403123801455300E-14, 0.000000000000000000, 7.258819045102511858 ) ) ;
#379 = CALENDAR_DATE ( 2023, 27, 9 ) ;
#380 = FACE_OUTER_BOUND ( 'NONE', #368, .T. ) ;
#381 = CYLINDRICAL_SURFACE ( 'NONE', #89, 1.999999999999998224 ) ;
#382 = CARTESIAN_POINT ( 'NONE',  ( 0.000000000000000000, 0.000000000000000000, 0.000000000000000000 ) ) ;
#383 =( LENGTH_UNIT ( ) NAMED_UNIT ( * ) SI_UNIT ( .MILLI., .METRE. ) );
#384 = CIRCLE ( 'NONE', #275, 1.999999999999996669 ) ;
#385 = LOCAL_TIME ( 10, 29, 54.00000000000000000, #138 ) ;
#386 = APPROVAL ( #231, 'UNSPECIFIED' ) ;
#387 = VERTEX_POINT ( 'NONE', #328 ) ;
#388 = EDGE_CURVE ( 'NONE', #22, #22, #39, .T. ) ;
#389 = DIRECTION ( 'NONE',  ( 1.000000000000000000, 0.000000000000000000, 0.000000000000000000 ) ) ;
#390 = ADVANCED_FACE ( 'NONE', ( #4, #380 ), #107, .T. ) ;
#391 = ORIENTED_EDGE ( 'NONE', *, *, #283, .T. ) ;
#392 = FACE_OUTER_BOUND ( 'NONE', #154, .T. ) ;
#393 = CIRCLE ( 'NONE', #179, 0.8030716899321302948 ) ;
#394 = SECURITY_CLASSIFICATION ( '', '', #77 ) ;
#395 = EDGE_LOOP ( 'NONE', ( #225 ) ) ;
ENDSEC;
END-ISO-10303-21;
