ISO-10303-21;
HEADER;
FILE_DESCRIPTION (( 'STEP AP203' ),
    '1' );
FILE_NAME ('960461.step',
    '2023-09-27T08:29:53',
    ( '' ),
    ( '' ),
    'SwSTEP 2.0',
    'SolidWorks 2022',
    '' );
FILE_SCHEMA (( 'CONFIG_CONTROL_DESIGN' ));
ENDSEC;

DATA;
#1 = CARTESIAN_POINT ( 'NONE',  ( 1.326762908760390423E-13, 0.000000000000000000, 38.00000000000000000 ) ) ;
#2 = EDGE_LOOP ( 'NONE', ( #58 ) ) ;
#3 = EDGE_LOOP ( 'NONE', ( #192 ) ) ;
#4 = FACE_OUTER_BOUND ( 'NONE', #155, .T. ) ;
#5 = AXIS2_PLACEMENT_3D ( 'NONE', #174, #290, #15 ) ;
#6 =( NAMED_UNIT ( * ) PLANE_ANGLE_UNIT ( ) SI_UNIT ( $, .RADIAN. ) );
#7 = CC_DESIGN_APPROVAL ( #91, ( #125 ) ) ;
#8 = FACE_OUTER_BOUND ( 'NONE', #280, .T. ) ;
#9 = DIRECTION ( 'NONE',  ( -3.491481338843133355E-15, 0.000000000000000000, -1.000000000000000000 ) ) ;
#10 = DIRECTION ( 'NONE',  ( 3.491481338843133355E-15, -0.000000000000000000, 1.000000000000000000 ) ) ;
#11 = VERTEX_POINT ( 'NONE', #252 ) ;
#12 = CIRCLE ( 'NONE', #148, 0.9849999999999999867 ) ;
#13 = AXIS2_PLACEMENT_3D ( 'NONE', #337, #62, #21 ) ;
#14 = ADVANCED_FACE ( 'NONE', ( #111, #203 ), #308, .T. ) ;
#15 = DIRECTION ( 'NONE',  ( 1.000000000000000000, 0.000000000000000000, 0.000000000000000000 ) ) ;
#16 = VERTEX_POINT ( 'NONE', #351 ) ;
#17 = CARTESIAN_POINT ( 'NONE',  ( 2.291284628615796404E-15, 0.000000000000000000, 0.6562499999999971134 ) ) ;
#18 =( GEOMETRIC_REPRESENTATION_CONTEXT ( 3 ) GLOBAL_UNCERTAINTY_ASSIGNED_CONTEXT ( ( #146 ) ) GLOBAL_UNIT_ASSIGNED_CONTEXT ( ( #230, #6, #34 ) ) REPRESENTATION_CONTEXT ( 'NONE', 'WORKASPACE' ) );
#19 = CC_DESIGN_PERSON_AND_ORGANIZATION_ASSIGNMENT ( #70, #311, ( #256 ) ) ;
#20 = PLANE ( 'NONE',  #364 ) ;
#21 = DIRECTION ( 'NONE',  ( 1.000000000000000000, 0.000000000000000000, -3.522281169496055046E-15 ) ) ;
#22 = AXIS2_PLACEMENT_3D ( 'NONE', #74, #171, #194 ) ;
#23 = CC_DESIGN_APPROVAL ( #116, ( #256 ) ) ;
#24 = EDGE_LOOP ( 'NONE', ( #300 ) ) ;
#25 = PERSON ( 'UNSPECIFIED', 'UNSPECIFIED', 'UNSPECIFIED', ('UNSPECIFIED'), ('UNSPECIFIED'), ('UNSPECIFIED') ) ;
#26 = EDGE_LOOP ( 'NONE', ( #338 ) ) ;
#27 = ADVANCED_FACE ( 'NONE', ( #93, #334 ), #60, .T. ) ;
#28 = ORIENTED_EDGE ( 'NONE', *, *, #117, .F. ) ;
#29 = AXIS2_PLACEMENT_3D ( 'NONE', #84, #53, #183 ) ;
#30 = ORIENTED_EDGE ( 'NONE', *, *, #228, .F. ) ;
#31 = ADVANCED_FACE ( 'NONE', ( #314, #272 ), #20, .F. ) ;
#32 = ORIENTED_EDGE ( 'NONE', *, *, #147, .T. ) ;
#33 = CYLINDRICAL_SURFACE ( 'NONE', #327, 0.9849999999999999867 ) ;
#34 =( NAMED_UNIT ( * ) SI_UNIT ( $, .STERADIAN. ) SOLID_ANGLE_UNIT ( ) );
#35 = CARTESIAN_POINT ( 'NONE',  ( 3.142333204958813314E-15, 0.000000000000000000, 0.8999999999999980238 ) ) ;
#36 = DIRECTION ( 'NONE',  ( 3.491481338843133355E-15, -0.000000000000000000, 1.000000000000000000 ) ) ;
#37 = AXIS2_PLACEMENT_3D ( 'NONE', #240, #302, #161 ) ;
#38 = CARTESIAN_POINT ( 'NONE',  ( 0.6300000000000032241, 0.000000000000000000, 0.8999999999999958034 ) ) ;
#39 = DIRECTION ( 'NONE',  ( 1.000000000000000000, 0.000000000000000000, 0.000000000000000000 ) ) ;
#40 = CARTESIAN_POINT ( 'NONE',  ( 1.500000000000032196, 0.000000000000000000, 9.178536700172401197 ) ) ;
#41 = ADVANCED_FACE ( 'NONE', ( #328, #355 ), #124, .T. ) ;
#42 = CARTESIAN_POINT ( 'NONE',  ( 1.316288464743861212E-13, 0.000000000000000000, 37.69999999999999574 ) ) ;
#43 = CALENDAR_DATE ( 2023, 27, 9 ) ;
#44 = CONICAL_SURFACE ( 'NONE', #83, 0.9849999999999999867, 1.047197551196607623 ) ;
#45 = VERTEX_POINT ( 'NONE', #382 ) ;
#46 = CIRCLE ( 'NONE', #389, 0.7251923788646670310 ) ;
#47 = DIRECTION ( 'NONE',  ( 1.000000000000000000, 0.000000000000000000, 0.000000000000000000 ) ) ;
#48 = ADVANCED_FACE ( 'NONE', ( #282, #4 ), #33, .T. ) ;
#49 = SECURITY_CLASSIFICATION_LEVEL ( 'unclassified' ) ;
#50 = DATE_AND_TIME ( #210, #52 ) ;
#51 = AXIS2_PLACEMENT_3D ( 'NONE', #234, #346, #267 ) ;
#52 = LOCAL_TIME ( 10, 29, 53.00000000000000000, #388 ) ;
#53 = DIRECTION ( 'NONE',  ( 3.491481338843133355E-15, -0.000000000000000000, 1.000000000000000000 ) ) ;
#54 = EDGE_CURVE ( 'NONE', #237, #237, #168, .T. ) ;
#55 = EDGE_LOOP ( 'NONE', ( #66 ) ) ;
#56 = APPROVAL_ROLE ( '' ) ;
#57 = DIRECTION ( 'NONE',  ( 3.491481338843133355E-15, -0.000000000000000000, 1.000000000000000000 ) ) ;
#58 = ORIENTED_EDGE ( 'NONE', *, *, #274, .T. ) ;
#59 = ORIENTED_EDGE ( 'NONE', *, *, #228, .T. ) ;
#60 = CONICAL_SURFACE ( 'NONE', #375, 0.6277645209389175474, 1.047197551196603627 ) ;
#61 = CIRCLE ( 'NONE', #336, 0.6300000000000000044 ) ;
#62 = DIRECTION ( 'NONE',  ( 3.491481338843133355E-15, -0.000000000000000000, 1.000000000000000000 ) ) ;
#63 = EDGE_LOOP ( 'NONE', ( #87 ) ) ;
#64 = CYLINDRICAL_SURFACE ( 'NONE', #205, 0.7251923788646670310 ) ;
#65 = CC_DESIGN_PERSON_AND_ORGANIZATION_ASSIGNMENT ( #352, #82, ( #125 ) ) ;
#66 = ORIENTED_EDGE ( 'NONE', *, *, #196, .T. ) ;
#67 = DIRECTION ( 'NONE',  ( 3.491481338843133355E-15, -0.000000000000000000, 1.000000000000000000 ) ) ;
#68 = VERTEX_POINT ( 'NONE', #175 ) ;
#69 = AXIS2_PLACEMENT_3D ( 'NONE', #310, #103, #254 ) ;
#70 = PERSON_AND_ORGANIZATION ( #25, #89 ) ;
#71 = CIRCLE ( 'NONE', #385, 1.199999999999993516 ) ;
#72 = FACE_BOUND ( 'NONE', #157, .T. ) ;
#73 = APPROVAL_STATUS ( 'not_yet_approved' ) ;
#74 = CARTESIAN_POINT ( 'NONE',  ( 1.767562427789335472E-15, 0.000000000000000000, 0.5062499999999997558 ) ) ;
#75 = CARTESIAN_POINT ( 'NONE',  ( 1.316288464743861212E-13, 0.000000000000000000, 37.69999999999999574 ) ) ;
#76 = ADVANCED_BREP_SHAPE_REPRESENTATION ( '960461', ( #138, #393 ), #18 ) ;
#77 = CIRCLE ( 'NONE', #297, 1.499999999999996447 ) ;
#78 = CARTESIAN_POINT ( 'NONE',  ( 0.6640741737109504550, 0.000000000000000000, 6.058819045102509016 ) ) ;
#79 = CC_DESIGN_APPROVAL ( #294, ( #181 ) ) ;
#80 = FACE_OUTER_BOUND ( 'NONE', #356, .T. ) ;
#81 = CARTESIAN_POINT ( 'NONE',  ( 0.9850000000000006528, 0.000000000000000000, 0.2062499999999946598 ) ) ;
#82 = PERSON_AND_ORGANIZATION_ROLE ( 'classification_officer' ) ;
#83 = AXIS2_PLACEMENT_3D ( 'NONE', #104, #9, #227 ) ;
#84 = CARTESIAN_POINT ( 'NONE',  ( 2.115425363140279297E-14, 0.000000000000000000, 6.058819045102511680 ) ) ;
#85 = DIRECTION ( 'NONE',  ( -1.000000000000000000, 0.000000000000000000, 3.491481338843133355E-15 ) ) ;
#86 = EDGE_CURVE ( 'NONE', #16, #16, #113, .T. ) ;
#87 = ORIENTED_EDGE ( 'NONE', *, *, #394, .F. ) ;
#88 = AXIS2_PLACEMENT_3D ( 'NONE', #75, #326, #211 ) ;
#89 = ORGANIZATION ( 'UNSPECIFIED', 'UNSPECIFIED', '' ) ;
#90 = SHAPE_DEFINITION_REPRESENTATION ( #265, #76 ) ;
#91 = APPROVAL ( #243, 'UNSPECIFIED' ) ;
#92 = ORIENTED_EDGE ( 'NONE', *, *, #188, .T. ) ;
#93 = FACE_OUTER_BOUND ( 'NONE', #392, .T. ) ;
#94 = DIRECTION ( 'NONE',  ( 3.491481338843133355E-15, -0.000000000000000000, 1.000000000000000000 ) ) ;
#95 = DIRECTION ( 'NONE',  ( -3.491481338843133355E-15, 0.000000000000000000, -1.000000000000000000 ) ) ;
#96 = EDGE_LOOP ( 'NONE', ( #159 ) ) ;
#97 = TOROIDAL_SURFACE ( 'NONE', #319, 1.629999999999999227, 0.9999999999999995559 ) ;
#98 = CARTESIAN_POINT ( 'NONE',  ( 7.201180261363896478E-16, 0.000000000000000000, 0.2062499999999981015 ) ) ;
#99 = LOCAL_TIME ( 10, 29, 53.00000000000000000, #153 ) ;
#100 = EDGE_LOOP ( 'NONE', ( #129 ) ) ;
#101 = DIRECTION ( 'NONE',  ( 1.000000000000000000, 0.000000000000000000, 0.000000000000000000 ) ) ;
#102 = CARTESIAN_POINT ( 'NONE',  ( 1.326762908760390423E-13, 0.000000000000000000, 38.00000000000000000 ) ) ;
#103 = DIRECTION ( 'NONE',  ( -3.491481338843133355E-15, 0.000000000000000000, -1.000000000000000000 ) ) ;
#104 = CARTESIAN_POINT ( 'NONE',  ( 8.510485763430169108E-16, 0.000000000000000000, 0.2437500000000009104 ) ) ;
#105 = COORDINATED_UNIVERSAL_TIME_OFFSET ( 1, 0, .AHEAD. ) ;
#106 = DIRECTION ( 'NONE',  ( 1.000000000000000000, 0.000000000000000000, -4.625929269271496366E-15 ) ) ;
#107 = DATE_AND_TIME ( #378, #152 ) ;
#108 = CYLINDRICAL_SURFACE ( 'NONE', #51, 1.499999999999998224 ) ;
#109 = DIRECTION ( 'NONE',  ( 1.000000000000000000, 0.000000000000000000, -4.130293990420972841E-15 ) ) ;
#110 = CARTESIAN_POINT ( 'NONE',  ( 0.6277645209389175474, 0.000000000000000000, -2.191828110046029941E-15 ) ) ;
#111 = FACE_OUTER_BOUND ( 'NONE', #186, .T. ) ;
#112 = PERSON_AND_ORGANIZATION_ROLE ( 'creator' ) ;
#113 = CIRCLE ( 'NONE', #286, 0.7251923788646670310 ) ;
#114 = AXIS2_PLACEMENT_3D ( 'NONE', #121, #57, #360 ) ;
#115 = CARTESIAN_POINT ( 'NONE',  ( 0.6300000000000197664, 0.000000000000000000, 5.799999999999997158 ) ) ;
#116 = APPROVAL ( #374, 'UNSPECIFIED' ) ;
#117 = EDGE_CURVE ( 'NONE', #387, #387, #366, .T. ) ;
#118 = CC_DESIGN_PERSON_AND_ORGANIZATION_ASSIGNMENT ( #179, #295, ( #181 ) ) ;
#119 = CARTESIAN_POINT ( 'NONE',  ( 1.326762908760390423E-13, 1.199999999999993516, 38.00000000000000000 ) ) ;
#120 = ADVANCED_FACE ( 'NONE', ( #164, #80 ), #44, .T. ) ;
#121 = CARTESIAN_POINT ( 'NONE',  ( 1.374770777169477842E-15, 0.000000000000000000, 0.3937499999999982681 ) ) ;
#122 = ORIENTED_EDGE ( 'NONE', *, *, #386, .T. ) ;
#123 = ORIENTED_EDGE ( 'NONE', *, *, #214, .F. ) ;
#124 = CONICAL_SURFACE ( 'NONE', #29, 0.6640741737109292497, 0.2617993877991424134 ) ;
#125 = SECURITY_CLASSIFICATION ( '', '', #49 ) ;
#126 = ORIENTED_EDGE ( 'NONE', *, *, #188, .F. ) ;
#127 = CARTESIAN_POINT ( 'NONE',  ( 2.945937379648884302E-15, 0.000000000000000000, 0.8437499999999973355 ) ) ;
#128 = ORIENTED_EDGE ( 'NONE', *, *, #196, .F. ) ;
#129 = ORIENTED_EDGE ( 'NONE', *, *, #309, .F. ) ;
#130 = CIRCLE ( 'NONE', #349, 0.9849999999999999867 ) ;
#131 = AXIS2_PLACEMENT_3D ( 'NONE', #245, #94, #221 ) ;
#132 = CARTESIAN_POINT ( 'NONE',  ( 1.200000000000126299, 0.000000000000000000, 37.99999999999999289 ) ) ;
#133 = CYLINDRICAL_SURFACE ( 'NONE', #5, 0.9849999999999999867 ) ;
#134 = CARTESIAN_POINT ( 'NONE',  ( 1.500000000000127898, 0.000000000000000000, 37.69999999999998863 ) ) ;
#135 = DIRECTION ( 'NONE',  ( 3.491481338843133355E-15, -0.000000000000000000, 1.000000000000000000 ) ) ;
#136 = PRODUCT_RELATED_PRODUCT_CATEGORY ( 'detail', '', ( #381 ) ) ;
#137 = DIRECTION ( 'NONE',  ( 1.000000000000000000, 0.000000000000000000, 0.000000000000000000 ) ) ;
#138 = MANIFOLD_SOLID_BREP ( 'Corps-Déplacer/Copier1', #358 ) ;
#139 = DIRECTION ( 'NONE',  ( 1.000000000000000000, 0.000000000000000000, -3.491481338843133750E-15 ) ) ;
#140 = CONICAL_SURFACE ( 'NONE', #69, 0.9849999999999999867, 1.047197551196607623 ) ;
#141 = VERTEX_POINT ( 'NONE', #132 ) ;
#142 = FACE_OUTER_BOUND ( 'NONE', #184, .T. ) ;
#143 = PERSON_AND_ORGANIZATION ( #25, #89 ) ;
#144 = DIRECTION ( 'NONE',  ( 3.491481338843133355E-15, -0.000000000000000000, 1.000000000000000000 ) ) ;
#145 = FACE_OUTER_BOUND ( 'NONE', #193, .T. ) ;
#146 = UNCERTAINTY_MEASURE_WITH_UNIT (LENGTH_MEASURE( 1.000000000000000082E-05 ), #230, 'distance_accuracy_value', 'NONE');
#147 = EDGE_CURVE ( 'NONE', #208, #208, #268, .T. ) ;
#148 = AXIS2_PLACEMENT_3D ( 'NONE', #383, #318, #173 ) ;
#149 = CARTESIAN_POINT ( 'NONE',  ( 3.142333204958820020E-15, 0.7251923788646670310, 0.9000000000000000222 ) ) ;
#150 = DIRECTION ( 'NONE',  ( -3.491481338843133355E-15, 0.000000000000000000, -1.000000000000000000 ) ) ;
#151 = CARTESIAN_POINT ( 'NONE',  ( 1.326762908760390423E-13, 0.000000000000000000, 38.00000000000000000 ) ) ;
#152 = LOCAL_TIME ( 10, 29, 53.00000000000000000, #105 ) ;
#153 = COORDINATED_UNIVERSAL_TIME_OFFSET ( 1, 0, .AHEAD. ) ;
#154 = CYLINDRICAL_SURFACE ( 'NONE', #198, 0.6299999999999996714 ) ;
#155 = EDGE_LOOP ( 'NONE', ( #301 ) ) ;
#156 = ADVANCED_FACE ( 'NONE', ( #229, #347 ), #241, .T. ) ;
#157 = EDGE_LOOP ( 'NONE', ( #273 ) ) ;
#158 = ADVANCED_FACE ( 'NONE', ( #293, #224 ), #64, .T. ) ;
#159 = ORIENTED_EDGE ( 'NONE', *, *, #262, .T. ) ;
#160 = DATE_TIME_ROLE ( 'classification_date' ) ;
#161 = DIRECTION ( 'NONE',  ( 1.000000000000000000, 0.000000000000000000, -3.918365322693448674E-15 ) ) ;
#162 = DIRECTION ( 'NONE',  ( 3.491481338843133355E-15, -0.000000000000000000, 1.000000000000000000 ) ) ;
#163 = EDGE_LOOP ( 'NONE', ( #30 ) ) ;
#164 = FACE_BOUND ( 'NONE', #368, .T. ) ;
#165 = DATE_AND_TIME ( #43, #176 ) ;
#166 = ADVANCED_FACE ( 'NONE', ( #72, #145 ), #140, .T. ) ;
#167 = DIRECTION ( 'NONE',  ( 3.491481338843133355E-15, -0.000000000000000000, 1.000000000000000000 ) ) ;
#168 = CIRCLE ( 'NONE', #37, 0.6640741737109292497 ) ;
#169 = ADVANCED_FACE ( 'NONE', ( #200, #312 ), #342, .T. ) ;
#170 = VERTEX_POINT ( 'NONE', #371 ) ;
#171 = DIRECTION ( 'NONE',  ( 3.491481338843133355E-15, -0.000000000000000000, 1.000000000000000000 ) ) ;
#172 = VERTEX_POINT ( 'NONE', #134 ) ;
#173 = DIRECTION ( 'NONE',  ( 1.000000000000000000, 0.000000000000000000, -3.494763347859366968E-15 ) ) ;
#174 = CARTESIAN_POINT ( 'NONE',  ( 1.326762908760390423E-13, 0.000000000000000000, 38.00000000000000000 ) ) ;
#175 = CARTESIAN_POINT ( 'NONE',  ( 0.9850000000000023181, 0.000000000000000000, 0.6562499999999936717 ) ) ;
#176 = LOCAL_TIME ( 10, 29, 53.00000000000000000, #348 ) ;
#177 = EDGE_CURVE ( 'NONE', #317, #317, #354, .T. ) ;
#178 = FACE_OUTER_BOUND ( 'NONE', #250, .T. ) ;
#179 = PERSON_AND_ORGANIZATION ( #25, #89 ) ;
#180 = ADVANCED_FACE ( 'NONE', ( #344 ), #315, .F. ) ;
#181 = PRODUCT_DEFINITION_FORMATION_WITH_SPECIFIED_SOURCE ( 'ANY', '', #381, .NOT_KNOWN. ) ;
#182 = DIRECTION ( 'NONE',  ( 3.491481338843133355E-15, -0.000000000000000000, 1.000000000000000000 ) ) ;
#183 = DIRECTION ( 'NONE',  ( 1.000000000000000000, 0.000000000000000000, -3.918365322693448674E-15 ) ) ;
#184 = EDGE_LOOP ( 'NONE', ( #123 ) ) ;
#185 = CARTESIAN_POINT ( 'NONE',  ( 0.000000000000000000, 0.000000000000000000, 0.000000000000000000 ) ) ;
#186 = EDGE_LOOP ( 'NONE', ( #239 ) ) ;
#187 = CARTESIAN_POINT ( 'NONE',  ( 1.326762908760390423E-13, 0.000000000000000000, 38.00000000000000000 ) ) ;
#188 = EDGE_CURVE ( 'NONE', #45, #45, #12, .T. ) ;
#189 = EDGE_LOOP ( 'NONE', ( #357 ) ) ;
#190 = AXIS2_PLACEMENT_3D ( 'NONE', #377, #263, #231 ) ;
#191 = PERSON_AND_ORGANIZATION ( #25, #89 ) ;
#192 = ORIENTED_EDGE ( 'NONE', *, *, #177, .F. ) ;
#193 = EDGE_LOOP ( 'NONE', ( #122 ) ) ;
#194 = DIRECTION ( 'NONE',  ( 1.000000000000000000, 0.000000000000000000, -3.438625486688987536E-15 ) ) ;
#195 = APPLICATION_PROTOCOL_DEFINITION ( 'international standard', 'config_control_design', 1994, #215 ) ;
#196 = EDGE_CURVE ( 'NONE', #321, #321, #61, .T. ) ;
#197 = DIRECTION ( 'NONE',  ( 3.491481338843133355E-15, -0.000000000000000000, 1.000000000000000000 ) ) ;
#198 = AXIS2_PLACEMENT_3D ( 'NONE', #1, #218, #270 ) ;
#199 = CC_DESIGN_PERSON_AND_ORGANIZATION_ASSIGNMENT ( #322, #112, ( #181 ) ) ;
#200 = FACE_OUTER_BOUND ( 'NONE', #163, .T. ) ;
#201 = APPROVAL_ROLE ( '' ) ;
#202 = ADVANCED_FACE ( 'NONE', ( #306, #178 ), #97, .F. ) ;
#203 = FACE_OUTER_BOUND ( 'NONE', #278, .T. ) ;
#204 = DIRECTION ( 'NONE',  ( 1.000000000000000000, 0.000000000000000000, -3.438625486688987536E-15 ) ) ;
#205 = AXIS2_PLACEMENT_3D ( 'NONE', #305, #135, #47 ) ;
#206 = AXIS2_PLACEMENT_3D ( 'NONE', #98, #244, #339 ) ;
#207 = DATE_AND_TIME ( #369, #236 ) ;
#208 = VERTEX_POINT ( 'NONE', #115 ) ;
#209 = CARTESIAN_POINT ( 'NONE',  ( 0.7251923788646686964, 0.000000000000000000, 0.5062499999999973133 ) ) ;
#210 = CALENDAR_DATE ( 2023, 27, 9 ) ;
#211 = DIRECTION ( 'NONE',  ( -1.000000000000000000, 0.000000000000000000, 4.625929269271496366E-15 ) ) ;
#212 = DIRECTION ( 'NONE',  ( -1.000000000000000000, 0.000000000000000000, 3.491481338843133355E-15 ) ) ;
#213 = DESIGN_CONTEXT ( 'detailed design', #296, 'design' ) ;
#214 = EDGE_CURVE ( 'NONE', #172, #172, #77, .T. ) ;
#215 = APPLICATION_CONTEXT ( 'configuration controlled 3d designs of mechanical parts and assemblies' ) ;
#216 = ORIENTED_EDGE ( 'NONE', *, *, #309, .T. ) ;
#217 = APPROVAL_DATE_TIME ( #281, #91 ) ;
#218 = DIRECTION ( 'NONE',  ( 3.491481338843133355E-15, -0.000000000000000000, 1.000000000000000000 ) ) ;
#219 = EDGE_LOOP ( 'NONE', ( #216 ) ) ;
#220 = DIRECTION ( 'NONE',  ( 3.491481338843133355E-15, -0.000000000000000000, 1.000000000000000000 ) ) ;
#221 = DIRECTION ( 'NONE',  ( 1.000000000000000000, 0.000000000000000000, -3.491481338843133355E-15 ) ) ;
#222 = EDGE_LOOP ( 'NONE', ( #331 ) ) ;
#223 = EDGE_LOOP ( 'NONE', ( #363 ) ) ;
#224 = FACE_OUTER_BOUND ( 'NONE', #2, .T. ) ;
#225 = EDGE_LOOP ( 'NONE', ( #340 ) ) ;
#226 = CARTESIAN_POINT ( 'NONE',  ( 0.000000000000000000, 0.000000000000000000, 0.000000000000000000 ) ) ;
#227 = DIRECTION ( 'NONE',  ( -1.000000000000000000, 0.000000000000000000, 3.494763347859366968E-15 ) ) ;
#228 = EDGE_CURVE ( 'NONE', #68, #68, #130, .T. ) ;
#229 = FACE_BOUND ( 'NONE', #63, .T. ) ;
#230 =( LENGTH_UNIT ( ) NAMED_UNIT ( * ) SI_UNIT ( .MILLI., .METRE. ) );
#231 = DIRECTION ( 'NONE',  ( 1.000000000000000000, 0.000000000000000000, -3.491481338843133355E-15 ) ) ;
#232 = AXIS2_PLACEMENT_3D ( 'NONE', #102, #220, #39 ) ;
#233 = PERSON_AND_ORGANIZATION ( #25, #89 ) ;
#234 = CARTESIAN_POINT ( 'NONE',  ( 1.326762908760390423E-13, 0.000000000000000000, 38.00000000000000000 ) ) ;
#235 = PERSON_AND_ORGANIZATION ( #25, #89 ) ;
#236 = LOCAL_TIME ( 10, 29, 53.00000000000000000, #261 ) ;
#237 = VERTEX_POINT ( 'NONE', #78 ) ;
#238 = AXIS2_PLACEMENT_3D ( 'NONE', #370, #372, #204 ) ;
#239 = ORIENTED_EDGE ( 'NONE', *, *, #86, .F. ) ;
#240 = CARTESIAN_POINT ( 'NONE',  ( 2.115425363140279297E-14, 0.000000000000000000, 6.058819045102511680 ) ) ;
#241 = CONICAL_SURFACE ( 'NONE', #88, 1.499999999999996447, 0.7853981633974501664 ) ;
#242 = CIRCLE ( 'NONE', #114, 0.7251923788646670310 ) ;
#243 = APPROVAL_STATUS ( 'not_yet_approved' ) ;
#244 = DIRECTION ( 'NONE',  ( 3.491481338843133355E-15, -0.000000000000000000, 1.000000000000000000 ) ) ;
#245 = CARTESIAN_POINT ( 'NONE',  ( 0.000000000000000000, 0.000000000000000000, 0.000000000000000000 ) ) ;
#246 = ORIENTED_EDGE ( 'NONE', *, *, #303, .T. ) ;
#247 = EDGE_LOOP ( 'NONE', ( #299 ) ) ;
#248 = ADVANCED_FACE ( 'NONE', ( #8, #257 ), #133, .T. ) ;
#249 = ADVANCED_FACE ( 'NONE', ( #142, #260 ), #108, .T. ) ;
#250 = EDGE_LOOP ( 'NONE', ( #32 ) ) ;
#251 = AXIS2_PLACEMENT_3D ( 'NONE', #279, #277, #332 ) ;
#252 = CARTESIAN_POINT ( 'NONE',  ( 0.7251923788646683633, 0.000000000000000000, 0.3937499999999957145 ) ) ;
#253 = MECHANICAL_CONTEXT ( 'NONE', #215, 'mechanical' ) ;
#254 = DIRECTION ( 'NONE',  ( -1.000000000000000000, 0.000000000000000000, 3.522281169496055046E-15 ) ) ;
#255 = APPLICATION_PROTOCOL_DEFINITION ( 'international standard', 'config_control_design', 1994, #296 ) ;
#256 = PRODUCT_DEFINITION ( 'UNKNOWN', '', #181, #213 ) ;
#257 = FACE_OUTER_BOUND ( 'NONE', #275, .T. ) ;
#258 = AXIS2_PLACEMENT_3D ( 'NONE', #119, #95, #85 ) ;
#259 = APPROVAL_ROLE ( '' ) ;
#260 = FACE_OUTER_BOUND ( 'NONE', #96, .T. ) ;
#261 = COORDINATED_UNIVERSAL_TIME_OFFSET ( 1, 0, .AHEAD. ) ;
#262 = EDGE_CURVE ( 'NONE', #291, #291, #367, .T. ) ;
#263 = DIRECTION ( 'NONE',  ( 3.491481338843133355E-15, -0.000000000000000000, 1.000000000000000000 ) ) ;
#264 = ADVANCED_FACE ( 'NONE', ( #298, #325 ), #154, .T. ) ;
#265 = PRODUCT_DEFINITION_SHAPE ( 'NONE', 'NONE',  #256 ) ;
#266 = DIRECTION ( 'NONE',  ( 1.000000000000000000, 0.000000000000000000, -5.782411586589388010E-15 ) ) ;
#267 = DIRECTION ( 'NONE',  ( 1.000000000000000000, 0.000000000000000000, -4.625929269271490844E-15 ) ) ;
#268 = CIRCLE ( 'NONE', #384, 0.6299999999999994493 ) ;
#269 = APPROVAL_PERSON_ORGANIZATION ( #233, #294, #201 ) ;
#270 = DIRECTION ( 'NONE',  ( 1.000000000000000000, 0.000000000000000000, 0.000000000000000000 ) ) ;
#271 = CALENDAR_DATE ( 2023, 27, 9 ) ;
#272 = FACE_OUTER_BOUND ( 'NONE', #222, .T. ) ;
#273 = ORIENTED_EDGE ( 'NONE', *, *, #303, .F. ) ;
#274 = EDGE_CURVE ( 'NONE', #11, #11, #242, .T. ) ;
#275 = EDGE_LOOP ( 'NONE', ( #59 ) ) ;
#276 = DIRECTION ( 'NONE',  ( 1.000000000000000000, 0.000000000000000000, -3.438625486688987536E-15 ) ) ;
#277 = DIRECTION ( 'NONE',  ( 3.491481338843133355E-15, -0.000000000000000000, 1.000000000000000000 ) ) ;
#278 = EDGE_LOOP ( 'NONE', ( #246 ) ) ;
#279 = CARTESIAN_POINT ( 'NONE',  ( 3.204668960653878854E-14, 0.000000000000000000, 9.178536700172406526 ) ) ;
#280 = EDGE_LOOP ( 'NONE', ( #361 ) ) ;
#281 = DATE_AND_TIME ( #271, #99 ) ;
#282 = FACE_OUTER_BOUND ( 'NONE', #391, .T. ) ;
#283 = DIRECTION ( 'NONE',  ( 1.000000000000000000, 0.000000000000000000, -3.491481338843133355E-15 ) ) ;
#284 = EDGE_LOOP ( 'NONE', ( #333 ) ) ;
#285 = APPROVAL_DATE_TIME ( #165, #294 ) ;
#286 = AXIS2_PLACEMENT_3D ( 'NONE', #365, #67, #276 ) ;
#287 = DIRECTION ( 'NONE',  ( 1.000000000000000000, 0.000000000000000000, -3.522281169496055046E-15 ) ) ;
#288 = DIRECTION ( 'NONE',  ( 3.491481338843133355E-15, -0.000000000000000000, 1.000000000000000000 ) ) ;
#289 = PERSON_AND_ORGANIZATION_ROLE ( 'design_owner' ) ;
#290 = DIRECTION ( 'NONE',  ( 3.491481338843133355E-15, -0.000000000000000000, 1.000000000000000000 ) ) ;
#291 = VERTEX_POINT ( 'NONE', #40 ) ;
#292 = CARTESIAN_POINT ( 'NONE',  ( 2.025059176529017031E-14, 0.000000000000000000, 5.799999999999999822 ) ) ;
#293 = FACE_OUTER_BOUND ( 'NONE', #3, .T. ) ;
#294 = APPROVAL ( #73, 'UNSPECIFIED' ) ;
#295 = PERSON_AND_ORGANIZATION_ROLE ( 'design_supplier' ) ;
#296 = APPLICATION_CONTEXT ( 'configuration controlled 3d designs of mechanical parts and assemblies' ) ;
#297 = AXIS2_PLACEMENT_3D ( 'NONE', #42, #10, #106 ) ;
#298 = FACE_OUTER_BOUND ( 'NONE', #247, .T. ) ;
#299 = ORIENTED_EDGE ( 'NONE', *, *, #147, .F. ) ;
#300 = ORIENTED_EDGE ( 'NONE', *, *, #214, .T. ) ;
#301 = ORIENTED_EDGE ( 'NONE', *, *, #117, .T. ) ;
#302 = DIRECTION ( 'NONE',  ( 3.491481338843133355E-15, -0.000000000000000000, 1.000000000000000000 ) ) ;
#303 = EDGE_CURVE ( 'NONE', #343, #343, #46, .T. ) ;
#304 = ORIENTED_EDGE ( 'NONE', *, *, #274, .F. ) ;
#305 = CARTESIAN_POINT ( 'NONE',  ( 1.326762908760390423E-13, 0.000000000000000000, 38.00000000000000000 ) ) ;
#306 = FACE_OUTER_BOUND ( 'NONE', #189, .T. ) ;
#307 = APPROVAL_DATE_TIME ( #207, #116 ) ;
#308 = CYLINDRICAL_SURFACE ( 'NONE', #232, 0.7251923788646670310 ) ;
#309 = EDGE_CURVE ( 'NONE', #313, #313, #320, .T. ) ;
#310 = CARTESIAN_POINT ( 'NONE',  ( 2.422215178822423765E-15, 0.000000000000000000, 0.6937499999999998668 ) ) ;
#311 = PERSON_AND_ORGANIZATION_ROLE ( 'creator' ) ;
#312 = FACE_BOUND ( 'NONE', #26, .T. ) ;
#313 = VERTEX_POINT ( 'NONE', #110 ) ;
#314 = FACE_BOUND ( 'NONE', #335, .T. ) ;
#315 = PLANE ( 'NONE',  #190 ) ;
#316 = CARTESIAN_POINT ( 'NONE',  ( 0.7251923788646699176, 0.000000000000000000, 0.8437499999999947820 ) ) ;
#317 = VERTEX_POINT ( 'NONE', #209 ) ;
#318 = DIRECTION ( 'NONE',  ( 3.491481338843133355E-15, -0.000000000000000000, 1.000000000000000000 ) ) ;
#319 = AXIS2_PLACEMENT_3D ( 'NONE', #292, #197, #139 ) ;
#320 = CIRCLE ( 'NONE', #131, 0.6277645209389175474 ) ;
#321 = VERTEX_POINT ( 'NONE', #38 ) ;
#322 = PERSON_AND_ORGANIZATION ( #25, #89 ) ;
#323 = CC_DESIGN_PERSON_AND_ORGANIZATION_ASSIGNMENT ( #143, #289, ( #381 ) ) ;
#324 = CC_DESIGN_SECURITY_CLASSIFICATION ( #125, ( #181 ) ) ;
#325 = FACE_OUTER_BOUND ( 'NONE', #55, .T. ) ;
#326 = DIRECTION ( 'NONE',  ( -3.491481338843133355E-15, 0.000000000000000000, -1.000000000000000000 ) ) ;
#327 = AXIS2_PLACEMENT_3D ( 'NONE', #187, #36, #101 ) ;
#328 = FACE_OUTER_BOUND ( 'NONE', #284, .T. ) ;
#329 = APPROVAL_PERSON_ORGANIZATION ( #235, #116, #259 ) ;
#330 = ADVANCED_FACE ( 'NONE', ( #362 ), #390, .F. ) ;
#331 = ORIENTED_EDGE ( 'NONE', *, *, #86, .T. ) ;
#332 = DIRECTION ( 'NONE',  ( 1.000000000000000000, 0.000000000000000000, -3.469446951953614189E-15 ) ) ;
#333 = ORIENTED_EDGE ( 'NONE', *, *, #262, .F. ) ;
#334 = FACE_BOUND ( 'NONE', #219, .T. ) ;
#335 = EDGE_LOOP ( 'NONE', ( #128 ) ) ;
#336 = AXIS2_PLACEMENT_3D ( 'NONE', #35, #288, #341 ) ;
#337 = CARTESIAN_POINT ( 'NONE',  ( 2.422215178822423765E-15, 0.000000000000000000, 0.6937499999999998668 ) ) ;
#338 = ORIENTED_EDGE ( 'NONE', *, *, #177, .T. ) ;
#339 = DIRECTION ( 'NONE',  ( 1.000000000000000000, 0.000000000000000000, -3.494763347859366968E-15 ) ) ;
#340 = ORIENTED_EDGE ( 'NONE', *, *, #394, .T. ) ;
#341 = DIRECTION ( 'NONE',  ( 1.000000000000000000, 0.000000000000000000, -3.441911658684141010E-15 ) ) ;
#342 = CONICAL_SURFACE ( 'NONE', #22, 0.7251923788646670310, 1.047197551196607623 ) ;
#343 = VERTEX_POINT ( 'NONE', #316 ) ;
#344 = FACE_OUTER_BOUND ( 'NONE', #100, .T. ) ;
#345 = DIRECTION ( 'NONE',  ( 0.000000000000000000, 0.000000000000000000, 1.000000000000000000 ) ) ;
#346 = DIRECTION ( 'NONE',  ( 3.491481338843133355E-15, -0.000000000000000000, 1.000000000000000000 ) ) ;
#347 = FACE_OUTER_BOUND ( 'NONE', #24, .T. ) ;
#348 = COORDINATED_UNIVERSAL_TIME_OFFSET ( 1, 0, .AHEAD. ) ;
#349 = AXIS2_PLACEMENT_3D ( 'NONE', #17, #167, #287 ) ;
#350 = CIRCLE ( 'NONE', #13, 0.9849999999999999867 ) ;
#351 = CARTESIAN_POINT ( 'NONE',  ( 0.7251923788646701396, 0.000000000000000000, 0.8999999999999955813 ) ) ;
#352 = PERSON_AND_ORGANIZATION ( #25, #89 ) ;
#353 = CC_DESIGN_DATE_AND_TIME_ASSIGNMENT ( #50, #160, ( #125 ) ) ;
#354 = CIRCLE ( 'NONE', #238, 0.7251923788646670310 ) ;
#355 = FACE_BOUND ( 'NONE', #223, .T. ) ;
#356 = EDGE_LOOP ( 'NONE', ( #92 ) ) ;
#357 = ORIENTED_EDGE ( 'NONE', *, *, #54, .F. ) ;
#358 = CLOSED_SHELL ( 'NONE', ( #180, #27, #48, #120, #158, #169, #248, #166, #14, #31, #264, #202, #41, #249, #156, #330 ) ) ;
#359 = CC_DESIGN_DATE_AND_TIME_ASSIGNMENT ( #107, #380, ( #256 ) ) ;
#360 = DIRECTION ( 'NONE',  ( 1.000000000000000000, 0.000000000000000000, -3.513378214660487119E-15 ) ) ;
#361 = ORIENTED_EDGE ( 'NONE', *, *, #386, .F. ) ;
#362 = FACE_OUTER_BOUND ( 'NONE', #225, .T. ) ;
#363 = ORIENTED_EDGE ( 'NONE', *, *, #54, .T. ) ;
#364 = AXIS2_PLACEMENT_3D ( 'NONE', #149, #150, #212 ) ;
#365 = CARTESIAN_POINT ( 'NONE',  ( 3.142333204958813314E-15, 0.000000000000000000, 0.8999999999999980238 ) ) ;
#366 = CIRCLE ( 'NONE', #206, 0.9849999999999999867 ) ;
#367 = CIRCLE ( 'NONE', #251, 1.500000000000000000 ) ;
#368 = EDGE_LOOP ( 'NONE', ( #304 ) ) ;
#369 = CALENDAR_DATE ( 2023, 27, 9 ) ;
#370 = CARTESIAN_POINT ( 'NONE',  ( 1.767562427789335472E-15, 0.000000000000000000, 0.5062499999999997558 ) ) ;
#371 = CARTESIAN_POINT ( 'NONE',  ( 0.9850000000000023181, 0.000000000000000000, 0.6937499999999964251 ) ) ;
#372 = DIRECTION ( 'NONE',  ( 3.491481338843133355E-15, -0.000000000000000000, 1.000000000000000000 ) ) ;
#373 = CARTESIAN_POINT ( 'NONE',  ( 2.025059176529017031E-14, 0.000000000000000000, 5.799999999999999822 ) ) ;
#374 = APPROVAL_STATUS ( 'not_yet_approved' ) ;
#375 = AXIS2_PLACEMENT_3D ( 'NONE', #185, #162, #283 ) ;
#376 = APPROVAL_PERSON_ORGANIZATION ( #191, #91, #56 ) ;
#377 = CARTESIAN_POINT ( 'NONE',  ( -4.940502924691023227E-33, 0.000000000000000000, -1.415016276824211232E-18 ) ) ;
#378 = CALENDAR_DATE ( 2023, 27, 9 ) ;
#379 = DIRECTION ( 'NONE',  ( 3.491481338843133355E-15, -0.000000000000000000, 1.000000000000000000 ) ) ;
#380 = DATE_TIME_ROLE ( 'creation_date' ) ;
#381 = PRODUCT ( '960461', '960461', '', ( #253 ) ) ;
#382 = CARTESIAN_POINT ( 'NONE',  ( 0.9850000000000008749, 0.000000000000000000, 0.2437499999999974687 ) ) ;
#383 = CARTESIAN_POINT ( 'NONE',  ( 8.510485763430169108E-16, 0.000000000000000000, 0.2437500000000009104 ) ) ;
#384 = AXIS2_PLACEMENT_3D ( 'NONE', #373, #379, #109 ) ;
#385 = AXIS2_PLACEMENT_3D ( 'NONE', #151, #144, #266 ) ;
#386 = EDGE_CURVE ( 'NONE', #170, #170, #350, .T. ) ;
#387 = VERTEX_POINT ( 'NONE', #81 ) ;
#388 = COORDINATED_UNIVERSAL_TIME_OFFSET ( 1, 0, .AHEAD. ) ;
#389 = AXIS2_PLACEMENT_3D ( 'NONE', #127, #182, #395 ) ;
#390 = PLANE ( 'NONE',  #258 ) ;
#391 = EDGE_LOOP ( 'NONE', ( #126 ) ) ;
#392 = EDGE_LOOP ( 'NONE', ( #28 ) ) ;
#393 = AXIS2_PLACEMENT_3D ( 'NONE', #226, #345, #137 ) ;
#394 = EDGE_CURVE ( 'NONE', #141, #141, #71, .T. ) ;
#395 = DIRECTION ( 'NONE',  ( 1.000000000000000000, 0.000000000000000000, -3.438625486688987536E-15 ) ) ;
ENDSEC;
END-ISO-10303-21;
