ISO-10303-21;
HEADER;
FILE_DESCRIPTION (( 'STEP AP203' ),
    '1' );
FILE_NAME ('960460.step',
    '2023-09-27T08:29:52',
    ( '' ),
    ( '' ),
    'SwSTEP 2.0',
    'SolidWorks 2022',
    '' );
FILE_SCHEMA (( 'CONFIG_CONTROL_DESIGN' ));
ENDSEC;

DATA;
#1 = EDGE_CURVE ( 'NONE', #55, #55, #78, .T. ) ;
#2 = ORIENTED_EDGE ( 'NONE', *, *, #60, .T. ) ;
#3 = FACE_OUTER_BOUND ( 'NONE', #266, .T. ) ;
#4 = CARTESIAN_POINT ( 'NONE',  ( 1.326762908760390423E-13, 0.000000000000000000, 38.00000000000000000 ) ) ;
#5 = DIRECTION ( 'NONE',  ( 3.491481338843133355E-15, -0.000000000000000000, 1.000000000000000000 ) ) ;
#6 = DIRECTION ( 'NONE',  ( 1.000000000000000000, 0.000000000000000000, -3.423796334164754872E-15 ) ) ;
#7 = CARTESIAN_POINT ( 'NONE',  ( 1.326762908760390423E-13, 0.000000000000000000, 38.00000000000000000 ) ) ;
#8 = AXIS2_PLACEMENT_3D ( 'NONE', #291, #175, #206 ) ;
#9 = CARTESIAN_POINT ( 'NONE',  ( 2.115425363140279297E-14, 0.000000000000000000, 6.058819045102511680 ) ) ;
#10 = PERSON_AND_ORGANIZATION_ROLE ( 'classification_officer' ) ;
#11 = EDGE_LOOP ( 'NONE', ( #346 ) ) ;
#12 = DIRECTION ( 'NONE',  ( 1.000000000000000000, 0.000000000000000000, -3.491481338843133355E-15 ) ) ;
#13 = ADVANCED_FACE ( 'NONE', ( #189, #301 ), #27, .T. ) ;
#14 = AXIS2_PLACEMENT_3D ( 'NONE', #170, #261, #165 ) ;
#15 = LOCAL_TIME ( 10, 29, 52.00000000000000000, #203 ) ;
#16 = CARTESIAN_POINT ( 'NONE',  ( 2.444036937190190588E-15, 0.000000000000000000, 0.6999999999999992895 ) ) ;
#17 = EDGE_LOOP ( 'NONE', ( #30 ) ) ;
#18 = DIRECTION ( 'NONE',  ( 3.491481338843133355E-15, -0.000000000000000000, 1.000000000000000000 ) ) ;
#19 = CARTESIAN_POINT ( 'NONE',  ( 1.782110266701180152E-15, 0.000000000000000000, 0.5104166666666659635 ) ) ;
#20 = AXIS2_PLACEMENT_3D ( 'NONE', #95, #218, #377 ) ;
#21 = PERSON_AND_ORGANIZATION ( #235, #361 ) ;
#22 = AXIS2_PLACEMENT_3D ( 'NONE', #270, #54, #182 ) ;
#23 = ADVANCED_FACE ( 'NONE', ( #336, #97 ), #35, .T. ) ;
#24 = DIRECTION ( 'NONE',  ( -3.491481338843133355E-15, 0.000000000000000000, -1.000000000000000000 ) ) ;
#25 = APPROVAL_STATUS ( 'not_yet_approved' ) ;
#26 = UNCERTAINTY_MEASURE_WITH_UNIT (LENGTH_MEASURE( 1.000000000000000082E-05 ), #68, 'distance_accuracy_value', 'NONE');
#27 = CONICAL_SURFACE ( 'NONE', #359, 0.7940741737109291432, 0.2617993877991428020 ) ;
#28 = EDGE_LOOP ( 'NONE', ( #249 ) ) ;
#29 = DIRECTION ( 'NONE',  ( -3.491481338843133355E-15, 0.000000000000000000, -1.000000000000000000 ) ) ;
#30 = ORIENTED_EDGE ( 'NONE', *, *, #289, .F. ) ;
#31 = CC_DESIGN_DATE_AND_TIME_ASSIGNMENT ( #394, #111, ( #155 ) ) ;
#32 = CARTESIAN_POINT ( 'NONE',  ( 1.326762908760390423E-13, 0.000000000000000000, 38.00000000000000000 ) ) ;
#33 = AXIS2_PLACEMENT_3D ( 'NONE', #34, #176, #335 ) ;
#34 = CARTESIAN_POINT ( 'NONE',  ( 1.326762908760390423E-13, 0.000000000000000000, 38.00000000000000000 ) ) ;
#35 = CYLINDRICAL_SURFACE ( 'NONE', #179, 1.499999999999998224 ) ;
#36 = DIRECTION ( 'NONE',  ( 1.000000000000000000, 0.000000000000000000, -3.469446951953614189E-15 ) ) ;
#37 = EDGE_LOOP ( 'NONE', ( #115 ) ) ;
#38 = APPROVAL_DATE_TIME ( #275, #371 ) ;
#39 = APPROVAL_DATE_TIME ( #373, #204 ) ;
#40 = DIRECTION ( 'NONE',  ( 1.000000000000000000, 0.000000000000000000, -3.514527010858498078E-15 ) ) ;
#41 = FACE_OUTER_BOUND ( 'NONE', #210, .T. ) ;
#42 =( NAMED_UNIT ( * ) PLANE_ANGLE_UNIT ( ) SI_UNIT ( $, .RADIAN. ) );
#43 = DIRECTION ( 'NONE',  ( 1.000000000000000000, 0.000000000000000000, -3.423796334164750927E-15 ) ) ;
#44 = CIRCLE ( 'NONE', #22, 1.199999999999993516 ) ;
#45 = FACE_OUTER_BOUND ( 'NONE', #169, .T. ) ;
#46 = FACE_BOUND ( 'NONE', #293, .T. ) ;
#47 = CC_DESIGN_PERSON_AND_ORGANIZATION_ASSIGNMENT ( #190, #10, ( #271 ) ) ;
#48 = ADVANCED_FACE ( 'NONE', ( #121, #93 ), #277, .T. ) ;
#49 = FACE_OUTER_BOUND ( 'NONE', #282, .T. ) ;
#50 = CARTESIAN_POINT ( 'NONE',  ( 2.025059176529017031E-14, 0.000000000000000000, 5.799999999999999822 ) ) ;
#51 = CONICAL_SURFACE ( 'NONE', #312, 1.034999999999999920, 1.047197551196622944 ) ;
#52 = ORIENTED_EDGE ( 'NONE', *, *, #67, .T. ) ;
#53 = COORDINATED_UNIVERSAL_TIME_OFFSET ( 1, 0, .AHEAD. ) ;
#54 = DIRECTION ( 'NONE',  ( 3.491481338843133355E-15, -0.000000000000000000, 1.000000000000000000 ) ) ;
#55 = VERTEX_POINT ( 'NONE', #246 ) ;
#56 = COORDINATED_UNIVERSAL_TIME_OFFSET ( 1, 0, .AHEAD. ) ;
#57 = CIRCLE ( 'NONE', #180, 0.7599999999999991207 ) ;
#58 = ORIENTED_EDGE ( 'NONE', *, *, #258, .F. ) ;
#59 = CYLINDRICAL_SURFACE ( 'NONE', #92, 1.034999999999999920 ) ;
#60 = EDGE_CURVE ( 'NONE', #295, #295, #198, .T. ) ;
#61 = EDGE_LOOP ( 'NONE', ( #304 ) ) ;
#62 = CONICAL_SURFACE ( 'NONE', #287, 1.034999999999999920, 1.047197551196597187 ) ;
#63 = PERSON_AND_ORGANIZATION ( #235, #361 ) ;
#64 = VERTEX_POINT ( 'NONE', #376 ) ;
#65 = EDGE_LOOP ( 'NONE', ( #2 ) ) ;
#66 = COORDINATED_UNIVERSAL_TIME_OFFSET ( 1, 0, .AHEAD. ) ;
#67 = EDGE_CURVE ( 'NONE', #244, #244, #375, .T. ) ;
#68 =( LENGTH_UNIT ( ) NAMED_UNIT ( * ) SI_UNIT ( .MILLI., .METRE. ) );
#69 = DIRECTION ( 'NONE',  ( 1.000000000000000000, 0.000000000000000000, -3.491481338843133355E-15 ) ) ;
#70 = PRODUCT ( '960460', '960460', '', ( #207 ) ) ;
#71 = CARTESIAN_POINT ( 'NONE',  ( 0.7600000000000194378, 0.000000000000000000, 5.799999999999997158 ) ) ;
#72 = DIRECTION ( 'NONE',  ( -1.000000000000000000, 0.000000000000000000, 3.491481338843133355E-15 ) ) ;
#73 = DIRECTION ( 'NONE',  ( 3.491481338843133355E-15, -0.000000000000000000, 1.000000000000000000 ) ) ;
#74 = FACE_BOUND ( 'NONE', #333, .T. ) ;
#75 = COORDINATED_UNIVERSAL_TIME_OFFSET ( 1, 0, .AHEAD. ) ;
#76 = DIRECTION ( 'NONE',  ( 1.000000000000000000, 0.000000000000000000, -3.483064950255364665E-15 ) ) ;
#77 = CC_DESIGN_PERSON_AND_ORGANIZATION_ASSIGNMENT ( #222, #340, ( #105 ) ) ;
#78 = CIRCLE ( 'NONE', #147, 0.8329274057836293377 ) ;
#79 = CC_DESIGN_PERSON_AND_ORGANIZATION_ASSIGNMENT ( #21, #269, ( #155 ) ) ;
#80 = EDGE_LOOP ( 'NONE', ( #395 ) ) ;
#81 = PERSON_AND_ORGANIZATION ( #235, #361 ) ;
#82 = PERSON_AND_ORGANIZATION_ROLE ( 'design_owner' ) ;
#83 = VERTEX_POINT ( 'NONE', #209 ) ;
#84 = AXIS2_PLACEMENT_3D ( 'NONE', #139, #389, #12 ) ;
#85 = ORIENTED_EDGE ( 'NONE', *, *, #338, .F. ) ;
#86 = CYLINDRICAL_SURFACE ( 'NONE', #208, 0.8329274057836293377 ) ;
#87 = ORIENTED_EDGE ( 'NONE', *, *, #1, .T. ) ;
#88 = DIRECTION ( 'NONE',  ( 3.491481338843133355E-15, -0.000000000000000000, 1.000000000000000000 ) ) ;
#89 = CARTESIAN_POINT ( 'NONE',  ( 1.035000000000000586, 0.000000000000000000, 0.1895833333333296622 ) ) ;
#90 = EDGE_CURVE ( 'NONE', #290, #290, #278, .T. ) ;
#91 = AXIS2_PLACEMENT_3D ( 'NONE', #349, #264, #76 ) ;
#92 = AXIS2_PLACEMENT_3D ( 'NONE', #183, #363, #156 ) ;
#93 = FACE_OUTER_BOUND ( 'NONE', #65, .T. ) ;
#94 = CARTESIAN_POINT ( 'NONE',  ( 5.600917981060968883E-16, 0.000000000000000000, 0.1604166666666698160 ) ) ;
#95 = CARTESIAN_POINT ( 'NONE',  ( 1.069266160020712943E-15, 0.000000000000000000, 0.3062500000000009659 ) ) ;
#96 = VERTEX_POINT ( 'NONE', #71 ) ;
#97 = FACE_OUTER_BOUND ( 'NONE', #144, .T. ) ;
#98 = CIRCLE ( 'NONE', #352, 0.7571501829524910354 ) ;
#99 = FACE_OUTER_BOUND ( 'NONE', #372, .T. ) ;
#100 = DATE_TIME_ROLE ( 'classification_date' ) ;
#101 = CARTESIAN_POINT ( 'NONE',  ( 1.500000000000127898, 0.000000000000000000, 37.69999999999998863 ) ) ;
#102 = ADVANCED_FACE ( 'NONE', ( #345 ), #195, .F. ) ;
#103 = FACE_OUTER_BOUND ( 'NONE', #392, .T. ) ;
#104 = CARTESIAN_POINT ( 'NONE',  ( 1.374770777169477842E-15, 0.000000000000000000, 0.3937499999999982681 ) ) ;
#105 = PRODUCT_DEFINITION_FORMATION_WITH_SPECIFIED_SOURCE ( 'ANY', '', #70, .NOT_KNOWN. ) ;
#106 = DIRECTION ( 'NONE',  ( -1.000000000000000000, 0.000000000000000000, 3.491481338843133355E-15 ) ) ;
#107 = APPROVAL_STATUS ( 'not_yet_approved' ) ;
#108 = DIRECTION ( 'NONE',  ( 3.491481338843133355E-15, -0.000000000000000000, 1.000000000000000000 ) ) ;
#109 = CALENDAR_DATE ( 2023, 27, 9 ) ;
#110 = CLOSED_SHELL ( 'NONE', ( #125, #158, #297, #234, #48, #143, #369, #119, #379, #216, #384, #185, #13, #23, #146, #102 ) ) ;
#111 = DATE_TIME_ROLE ( 'creation_date' ) ;
#112 = EDGE_CURVE ( 'NONE', #83, #83, #322, .T. ) ;
#113 = APPLICATION_PROTOCOL_DEFINITION ( 'international standard', 'config_control_design', 1994, #343 ) ;
#114 = DIRECTION ( 'NONE',  ( 3.491481338843133355E-15, -0.000000000000000000, 1.000000000000000000 ) ) ;
#115 = ORIENTED_EDGE ( 'NONE', *, *, #219, .T. ) ;
#116 = CARTESIAN_POINT ( 'NONE',  ( 6.619266704890104357E-16, 0.000000000000000000, 0.1895833333333332704 ) ) ;
#117 = DIRECTION ( 'NONE',  ( 3.491481338843133355E-15, -0.000000000000000000, 1.000000000000000000 ) ) ;
#118 = ORIENTED_EDGE ( 'NONE', *, *, #325, .F. ) ;
#119 = ADVANCED_FACE ( 'NONE', ( #194, #99 ), #51, .T. ) ;
#120 = DIRECTION ( 'NONE',  ( 3.491481338843133355E-15, -0.000000000000000000, 1.000000000000000000 ) ) ;
#121 = FACE_OUTER_BOUND ( 'NONE', #126, .T. ) ;
#122 = DIRECTION ( 'NONE',  ( 1.000000000000000000, 0.000000000000000000, 0.000000000000000000 ) ) ;
#123 = CC_DESIGN_APPROVAL ( #371, ( #271 ) ) ;
#124 = DIRECTION ( 'NONE',  ( 3.491481338843133355E-15, -0.000000000000000000, 1.000000000000000000 ) ) ;
#125 = ADVANCED_FACE ( 'NONE', ( #49 ), #288, .F. ) ;
#126 = EDGE_LOOP ( 'NONE', ( #366 ) ) ;
#127 = CALENDAR_DATE ( 2023, 27, 9 ) ;
#128 = APPROVAL_STATUS ( 'not_yet_approved' ) ;
#129 = CARTESIAN_POINT ( 'NONE',  ( 0.000000000000000000, 0.000000000000000000, 0.000000000000000000 ) ) ;
#130 = AXIS2_PLACEMENT_3D ( 'NONE', #32, #5, #122 ) ;
#131 = FACE_BOUND ( 'NONE', #177, .T. ) ;
#132 = CC_DESIGN_PERSON_AND_ORGANIZATION_ASSIGNMENT ( #63, #255, ( #105 ) ) ;
#133 = CARTESIAN_POINT ( 'NONE',  ( 2.444036937190193349E-15, 0.8329274057836292267, 0.6999999999999999556 ) ) ;
#134 = CARTESIAN_POINT ( 'NONE',  ( 0.7940741737109503484, 0.000000000000000000, 6.058819045102509016 ) ) ;
#135 = DIRECTION ( 'NONE',  ( 3.491481338843133355E-15, -0.000000000000000000, 1.000000000000000000 ) ) ;
#136 = CIRCLE ( 'NONE', #358, 0.8329274057836293377 ) ;
#137 = AXIS2_PLACEMENT_3D ( 'NONE', #16, #18, #43 ) ;
#138 = CALENDAR_DATE ( 2023, 27, 9 ) ;
#139 = CARTESIAN_POINT ( 'NONE',  ( 0.000000000000000000, 0.000000000000000000, 0.000000000000000000 ) ) ;
#140 = CARTESIAN_POINT ( 'NONE',  ( 1.035000000000001696, 0.000000000000000000, 0.5104166666666624108 ) ) ;
#141 = EDGE_LOOP ( 'NONE', ( #251 ) ) ;
#142 = APPROVAL_PERSON_ORGANIZATION ( #81, #151, #327 ) ;
#143 = ADVANCED_FACE ( 'NONE', ( #318, #74 ), #283, .T. ) ;
#144 = EDGE_LOOP ( 'NONE', ( #273 ) ) ;
#145 = MANIFOLD_SOLID_BREP ( 'Corps-Déplacer/Copier1', #110 ) ;
#146 = ADVANCED_FACE ( 'NONE', ( #46, #45 ), #229, .T. ) ;
#147 = AXIS2_PLACEMENT_3D ( 'NONE', #187, #374, #40 ) ;
#148 = FACE_OUTER_BOUND ( 'NONE', #17, .T. ) ;
#149 = AXIS2_PLACEMENT_3D ( 'NONE', #362, #296, #300 ) ;
#150 = CARTESIAN_POINT ( 'NONE',  ( 1.326762908760390423E-13, 0.000000000000000000, 38.00000000000000000 ) ) ;
#151 = APPROVAL ( #25, 'UNSPECIFIED' ) ;
#152 = FACE_OUTER_BOUND ( 'NONE', #37, .T. ) ;
#153 = ORIENTED_EDGE ( 'NONE', *, *, #341, .F. ) ;
#154 = SHAPE_DEFINITION_REPRESENTATION ( #344, #167 ) ;
#155 = PRODUCT_DEFINITION ( 'UNKNOWN', '', #105, #267 ) ;
#156 = DIRECTION ( 'NONE',  ( 1.000000000000000000, 0.000000000000000000, -6.704245317784761908E-15 ) ) ;
#157 = DIRECTION ( 'NONE',  ( 3.491481338843133355E-15, -0.000000000000000000, 1.000000000000000000 ) ) ;
#158 = ADVANCED_FACE ( 'NONE', ( #41, #284 ), #347, .T. ) ;
#159 = AXIS2_PLACEMENT_3D ( 'NONE', #351, #315, #72 ) ;
#160 = ORIENTED_EDGE ( 'NONE', *, *, #260, .F. ) ;
#161 = DIRECTION ( 'NONE',  ( 1.000000000000000000, 0.000000000000000000, -3.276879289254483295E-15 ) ) ;
#162 = VERTEX_POINT ( 'NONE', #193 ) ;
#163 = CARTESIAN_POINT ( 'NONE',  ( 9.180947427546550674E-34, 0.000000000000000000, 2.629527852664555000E-19 ) ) ;
#164 = EDGE_CURVE ( 'NONE', #328, #328, #98, .T. ) ;
#165 = DIRECTION ( 'NONE',  ( 1.000000000000000000, 0.000000000000000000, -3.491481338843133355E-15 ) ) ;
#166 = AXIS2_PLACEMENT_3D ( 'NONE', #228, #387, #311 ) ;
#167 = ADVANCED_BREP_SHAPE_REPRESENTATION ( '960460', ( #145, #8 ), #294 ) ;
#168 = CC_DESIGN_SECURITY_CLASSIFICATION ( #271, ( #105 ) ) ;
#169 = EDGE_LOOP ( 'NONE', ( #171 ) ) ;
#170 = CARTESIAN_POINT ( 'NONE',  ( 2.025059176529017031E-14, 0.000000000000000000, 5.799999999999999822 ) ) ;
#171 = ORIENTED_EDGE ( 'NONE', *, *, #325, .T. ) ;
#172 = DIRECTION ( 'NONE',  ( 1.000000000000000000, 0.000000000000000000, -3.491481338843133355E-15 ) ) ;
#173 = DIRECTION ( 'NONE',  ( 1.000000000000000000, 0.000000000000000000, -3.456876491982768081E-15 ) ) ;
#174 = AXIS2_PLACEMENT_3D ( 'NONE', #19, #73, #173 ) ;
#175 = DIRECTION ( 'NONE',  ( 0.000000000000000000, 0.000000000000000000, 1.000000000000000000 ) ) ;
#176 = DIRECTION ( 'NONE',  ( 3.491481338843133355E-15, -0.000000000000000000, 1.000000000000000000 ) ) ;
#177 = EDGE_LOOP ( 'NONE', ( #237 ) ) ;
#178 = EDGE_LOOP ( 'NONE', ( #326 ) ) ;
#179 = AXIS2_PLACEMENT_3D ( 'NONE', #150, #157, #245 ) ;
#180 = AXIS2_PLACEMENT_3D ( 'NONE', #50, #114, #6 ) ;
#181 = DIRECTION ( 'NONE',  ( 1.000000000000000000, 0.000000000000000000, 0.000000000000000000 ) ) ;
#182 = DIRECTION ( 'NONE',  ( 1.000000000000000000, 0.000000000000000000, -5.782411586589388010E-15 ) ) ;
#183 = CARTESIAN_POINT ( 'NONE',  ( 1.326762908760390423E-13, 0.000000000000000000, 38.00000000000000000 ) ) ;
#184 = ORIENTED_EDGE ( 'NONE', *, *, #205, .F. ) ;
#185 = ADVANCED_FACE ( 'NONE', ( #254, #192 ), #252, .F. ) ;
#186 = CIRCLE ( 'NONE', #200, 1.034999999999999920 ) ;
#187 = CARTESIAN_POINT ( 'NONE',  ( 1.374770777169477842E-15, 0.000000000000000000, 0.3937499999999982681 ) ) ;
#188 = SECURITY_CLASSIFICATION_LEVEL ( 'unclassified' ) ;
#189 = FACE_OUTER_BOUND ( 'NONE', #61, .T. ) ;
#190 = PERSON_AND_ORGANIZATION ( #235, #361 ) ;
#191 = PRODUCT_RELATED_PRODUCT_CATEGORY ( 'detail', '', ( #70 ) ) ;
#192 = FACE_OUTER_BOUND ( 'NONE', #11, .T. ) ;
#193 = CARTESIAN_POINT ( 'NONE',  ( 1.500000000000030420, 0.000000000000000000, 8.693370095188431179 ) ) ;
#194 = FACE_BOUND ( 'NONE', #80, .T. ) ;
#195 = PLANE ( 'NONE',  #159 ) ;
#196 = DIRECTION ( 'NONE',  ( 3.491481338843133355E-15, -0.000000000000000000, 1.000000000000000000 ) ) ;
#197 = DIRECTION ( 'NONE',  ( -1.000000000000000000, 0.000000000000000000, 3.456876491982768081E-15 ) ) ;
#198 = CIRCLE ( 'NONE', #20, 0.8329274057836293377 ) ;
#199 = EDGE_LOOP ( 'NONE', ( #184 ) ) ;
#200 = AXIS2_PLACEMENT_3D ( 'NONE', #94, #88, #212 ) ;
#201 = CC_DESIGN_PERSON_AND_ORGANIZATION_ASSIGNMENT ( #356, #82, ( #70 ) ) ;
#202 = ORIENTED_EDGE ( 'NONE', *, *, #90, .F. ) ;
#203 = COORDINATED_UNIVERSAL_TIME_OFFSET ( 1, 0, .AHEAD. ) ;
#204 = APPROVAL ( #107, 'UNSPECIFIED' ) ;
#205 = EDGE_CURVE ( 'NONE', #226, #226, #231, .T. ) ;
#206 = DIRECTION ( 'NONE',  ( 1.000000000000000000, 0.000000000000000000, 0.000000000000000000 ) ) ;
#207 = MECHANICAL_CONTEXT ( 'NONE', #343, 'mechanical' ) ;
#208 = AXIS2_PLACEMENT_3D ( 'NONE', #4, #211, #181 ) ;
#209 = CARTESIAN_POINT ( 'NONE',  ( 0.7600000000000025624, 0.000000000000000000, 0.6999999999999966249 ) ) ;
#210 = EDGE_LOOP ( 'NONE', ( #85 ) ) ;
#211 = DIRECTION ( 'NONE',  ( 3.491481338843133355E-15, -0.000000000000000000, 1.000000000000000000 ) ) ;
#212 = DIRECTION ( 'NONE',  ( 1.000000000000000000, 0.000000000000000000, -3.483064950255364665E-15 ) ) ;
#213 = EDGE_LOOP ( 'NONE', ( #355 ) ) ;
#214 = CYLINDRICAL_SURFACE ( 'NONE', #33, 1.034999999999999920 ) ;
#215 = APPROVAL_PERSON_ORGANIZATION ( #305, #371, #331 ) ;
#216 = ADVANCED_FACE ( 'NONE', ( #131, #103 ), #286, .F. ) ;
#217 = ORIENTED_EDGE ( 'NONE', *, *, #164, .F. ) ;
#218 = DIRECTION ( 'NONE',  ( 3.491481338843133355E-15, -0.000000000000000000, 1.000000000000000000 ) ) ;
#219 = EDGE_CURVE ( 'NONE', #380, #380, #136, .T. ) ;
#220 = AXIS2_PLACEMENT_3D ( 'NONE', #368, #117, #243 ) ;
#221 = APPROVAL_PERSON_ORGANIZATION ( #388, #204, #354 ) ;
#222 = PERSON_AND_ORGANIZATION ( #235, #361 ) ;
#223 = CARTESIAN_POINT ( 'NONE',  ( 1.035000000000000586, 0.000000000000000000, 0.1604166666666662078 ) ) ;
#224 = DIRECTION ( 'NONE',  ( -3.491481338843133355E-15, 0.000000000000000000, -1.000000000000000000 ) ) ;
#225 = ORIENTED_EDGE ( 'NONE', *, *, #205, .T. ) ;
#226 = VERTEX_POINT ( 'NONE', #134 ) ;
#227 = CARTESIAN_POINT ( 'NONE',  ( 1.883945139084117760E-15, 0.000000000000000000, 0.5395833333333364124 ) ) ;
#228 = CARTESIAN_POINT ( 'NONE',  ( 2.115425363140279297E-14, 0.000000000000000000, 6.058819045102511680 ) ) ;
#229 = CONICAL_SURFACE ( 'NONE', #337, 1.499999999999996447, 0.7853981633974501664 ) ;
#230 = CARTESIAN_POINT ( 'NONE',  ( 2.291284628615796404E-15, 0.000000000000000000, 0.6562499999999971134 ) ) ;
#231 = CIRCLE ( 'NONE', #166, 0.7940741737109291432 ) ;
#232 = CIRCLE ( 'NONE', #348, 1.034999999999999920 ) ;
#233 = DATE_AND_TIME ( #138, #253 ) ;
#234 = ADVANCED_FACE ( 'NONE', ( #259, #383 ), #62, .T. ) ;
#235 = PERSON ( 'UNSPECIFIED', 'UNSPECIFIED', 'UNSPECIFIED', ('UNSPECIFIED'), ('UNSPECIFIED'), ('UNSPECIFIED') ) ;
#236 = APPROVAL_DATE_TIME ( #233, #151 ) ;
#237 = ORIENTED_EDGE ( 'NONE', *, *, #112, .F. ) ;
#238 = FACE_OUTER_BOUND ( 'NONE', #298, .T. ) ;
#239 = EDGE_LOOP ( 'NONE', ( #58 ) ) ;
#240 = CIRCLE ( 'NONE', #220, 0.8329274057836292267 ) ;
#241 = CC_DESIGN_APPROVAL ( #151, ( #155 ) ) ;
#242 = CARTESIAN_POINT ( 'NONE',  ( 3.035273945900737982E-14, 0.000000000000000000, 8.693370095188436508 ) ) ;
#243 = DIRECTION ( 'NONE',  ( 1.000000000000000000, 0.000000000000000000, -3.514527010858498473E-15 ) ) ;
#244 = VERTEX_POINT ( 'NONE', #140 ) ;
#245 = DIRECTION ( 'NONE',  ( 1.000000000000000000, 0.000000000000000000, -4.625929269271490844E-15 ) ) ;
#246 = CARTESIAN_POINT ( 'NONE',  ( 0.8329274057836307810, 0.000000000000000000, 0.3937499999999953260 ) ) ;
#247 = CIRCLE ( 'NONE', #149, 1.499999999999996447 ) ;
#248 = ORIENTED_EDGE ( 'NONE', *, *, #258, .T. ) ;
#249 = ORIENTED_EDGE ( 'NONE', *, *, #67, .F. ) ;
#250 = CARTESIAN_POINT ( 'NONE',  ( 0.8329274057836316691, 0.000000000000000000, 0.6562499999999942268 ) ) ;
#251 = ORIENTED_EDGE ( 'NONE', *, *, #60, .F. ) ;
#252 = TOROIDAL_SURFACE ( 'NONE', #14, 1.759999999999999343, 1.000000000000000000 ) ;
#253 = LOCAL_TIME ( 10, 29, 52.00000000000000000, #53 ) ;
#254 = FACE_OUTER_BOUND ( 'NONE', #199, .T. ) ;
#255 = PERSON_AND_ORGANIZATION_ROLE ( 'design_supplier' ) ;
#256 = VERTEX_POINT ( 'NONE', #382 ) ;
#257 = DIRECTION ( 'NONE',  ( -3.491481338843133355E-15, 0.000000000000000000, -1.000000000000000000 ) ) ;
#258 = EDGE_CURVE ( 'NONE', #256, #256, #240, .T. ) ;
#259 = FACE_BOUND ( 'NONE', #141, .T. ) ;
#260 = EDGE_CURVE ( 'NONE', #64, #64, #44, .T. ) ;
#261 = DIRECTION ( 'NONE',  ( 3.491481338843133355E-15, -0.000000000000000000, 1.000000000000000000 ) ) ;
#262 = AXIS2_PLACEMENT_3D ( 'NONE', #133, #257, #106 ) ;
#263 = APPLICATION_PROTOCOL_DEFINITION ( 'international standard', 'config_control_design', 1994, #364 ) ;
#264 = DIRECTION ( 'NONE',  ( 3.491481338843133355E-15, -0.000000000000000000, 1.000000000000000000 ) ) ;
#265 = DIRECTION ( 'NONE',  ( 3.491481338843133355E-15, -0.000000000000000000, 1.000000000000000000 ) ) ;
#266 = EDGE_LOOP ( 'NONE', ( #52 ) ) ;
#267 = DESIGN_CONTEXT ( 'detailed design', #364, 'design' ) ;
#268 = EDGE_LOOP ( 'NONE', ( #225 ) ) ;
#269 = PERSON_AND_ORGANIZATION_ROLE ( 'creator' ) ;
#270 = CARTESIAN_POINT ( 'NONE',  ( 1.326762908760390423E-13, 0.000000000000000000, 38.00000000000000000 ) ) ;
#271 = SECURITY_CLASSIFICATION ( '', '', #188 ) ;
#272 = CARTESIAN_POINT ( 'NONE',  ( 0.8329274057836304479, 0.000000000000000000, 0.3062499999999980238 ) ) ;
#273 = ORIENTED_EDGE ( 'NONE', *, *, #306, .T. ) ;
#274 = CYLINDRICAL_SURFACE ( 'NONE', #130, 0.7599999999999995648 ) ;
#275 = DATE_AND_TIME ( #127, #314 ) ;
#276 = DIRECTION ( 'NONE',  ( 1.000000000000000000, 0.000000000000000000, -3.456876491982768081E-15 ) ) ;
#277 = CYLINDRICAL_SURFACE ( 'NONE', #390, 0.8329274057836293377 ) ;
#278 = CIRCLE ( 'NONE', #91, 1.034999999999999920 ) ;
#279 = LOCAL_TIME ( 10, 29, 52.00000000000000000, #75 ) ;
#280 = ORIENTED_EDGE ( 'NONE', *, *, #338, .T. ) ;
#281 = DIRECTION ( 'NONE',  ( -1.000000000000000000, 0.000000000000000000, 4.625929269271496366E-15 ) ) ;
#282 = EDGE_LOOP ( 'NONE', ( #217 ) ) ;
#283 = CONICAL_SURFACE ( 'NONE', #385, 0.8329274057836293377, 1.047197551196597187 ) ;
#284 = FACE_BOUND ( 'NONE', #178, .T. ) ;
#285 = VERTEX_POINT ( 'NONE', #101 ) ;
#286 = PLANE ( 'NONE',  #262 ) ;
#287 = AXIS2_PLACEMENT_3D ( 'NONE', #116, #29, #332 ) ;
#288 = PLANE ( 'NONE',  #292 ) ;
#289 = EDGE_CURVE ( 'NONE', #313, #313, #232, .T. ) ;
#290 = VERTEX_POINT ( 'NONE', #89 ) ;
#291 = CARTESIAN_POINT ( 'NONE',  ( 0.000000000000000000, 0.000000000000000000, 0.000000000000000000 ) ) ;
#292 = AXIS2_PLACEMENT_3D ( 'NONE', #163, #135, #69 ) ;
#293 = EDGE_LOOP ( 'NONE', ( #160 ) ) ;
#294 =( GEOMETRIC_REPRESENTATION_CONTEXT ( 3 ) GLOBAL_UNCERTAINTY_ASSIGNED_CONTEXT ( ( #26 ) ) GLOBAL_UNIT_ASSIGNED_CONTEXT ( ( #68, #42, #367 ) ) REPRESENTATION_CONTEXT ( 'NONE', 'WORKASPACE' ) );
#295 = VERTEX_POINT ( 'NONE', #272 ) ;
#296 = DIRECTION ( 'NONE',  ( 3.491481338843133355E-15, -0.000000000000000000, 1.000000000000000000 ) ) ;
#297 = ADVANCED_FACE ( 'NONE', ( #365, #238 ), #59, .T. ) ;
#298 = EDGE_LOOP ( 'NONE', ( #280 ) ) ;
#299 = CIRCLE ( 'NONE', #324, 1.500000000000000000 ) ;
#300 = DIRECTION ( 'NONE',  ( 1.000000000000000000, 0.000000000000000000, -4.625929269271496366E-15 ) ) ;
#301 = FACE_BOUND ( 'NONE', #268, .T. ) ;
#302 = FACE_OUTER_BOUND ( 'NONE', #319, .T. ) ;
#303 = EDGE_LOOP ( 'NONE', ( #309 ) ) ;
#304 = ORIENTED_EDGE ( 'NONE', *, *, #306, .F. ) ;
#305 = PERSON_AND_ORGANIZATION ( #235, #361 ) ;
#306 = EDGE_CURVE ( 'NONE', #162, #162, #299, .T. ) ;
#307 = DIRECTION ( 'NONE',  ( 3.491481338843133355E-15, -0.000000000000000000, 1.000000000000000000 ) ) ;
#308 = CARTESIAN_POINT ( 'NONE',  ( 1.035000000000001918, 0.000000000000000000, 0.5395833333333327486 ) ) ;
#309 = ORIENTED_EDGE ( 'NONE', *, *, #112, .T. ) ;
#310 = CALENDAR_DATE ( 2023, 27, 9 ) ;
#311 = DIRECTION ( 'NONE',  ( 1.000000000000000000, 0.000000000000000000, -3.276879289254483295E-15 ) ) ;
#312 = AXIS2_PLACEMENT_3D ( 'NONE', #227, #224, #197 ) ;
#313 = VERTEX_POINT ( 'NONE', #308 ) ;
#314 = LOCAL_TIME ( 10, 29, 52.00000000000000000, #56 ) ;
#315 = DIRECTION ( 'NONE',  ( -3.491481338843133355E-15, 0.000000000000000000, -1.000000000000000000 ) ) ;
#316 = ORIENTED_EDGE ( 'NONE', *, *, #289, .T. ) ;
#317 = CARTESIAN_POINT ( 'NONE',  ( 0.7571501829524910354, 0.000000000000000000, -2.643575734480286833E-15 ) ) ;
#318 = FACE_OUTER_BOUND ( 'NONE', #28, .T. ) ;
#319 = EDGE_LOOP ( 'NONE', ( #153 ) ) ;
#320 = DIRECTION ( 'NONE',  ( 1.000000000000000000, 0.000000000000000000, -3.514527010858498078E-15 ) ) ;
#321 = CALENDAR_DATE ( 2023, 27, 9 ) ;
#322 = CIRCLE ( 'NONE', #137, 0.7600000000000000089 ) ;
#323 = CARTESIAN_POINT ( 'NONE',  ( 1.883945139084117760E-15, 0.000000000000000000, 0.5395833333333364124 ) ) ;
#324 = AXIS2_PLACEMENT_3D ( 'NONE', #242, #120, #36 ) ;
#325 = EDGE_CURVE ( 'NONE', #285, #285, #247, .T. ) ;
#326 = ORIENTED_EDGE ( 'NONE', *, *, #164, .T. ) ;
#327 = APPROVAL_ROLE ( '' ) ;
#328 = VERTEX_POINT ( 'NONE', #317 ) ;
#329 = FACE_OUTER_BOUND ( 'NONE', #303, .T. ) ;
#330 = EDGE_LOOP ( 'NONE', ( #118 ) ) ;
#331 = APPROVAL_ROLE ( '' ) ;
#332 = DIRECTION ( 'NONE',  ( -1.000000000000000000, 0.000000000000000000, 3.483064950255364665E-15 ) ) ;
#333 = EDGE_LOOP ( 'NONE', ( #87 ) ) ;
#334 = LOCAL_TIME ( 10, 29, 52.00000000000000000, #66 ) ;
#335 = DIRECTION ( 'NONE',  ( 1.000000000000000000, 0.000000000000000000, -6.704245317784761908E-15 ) ) ;
#336 = FACE_OUTER_BOUND ( 'NONE', #330, .T. ) ;
#337 = AXIS2_PLACEMENT_3D ( 'NONE', #342, #24, #281 ) ;
#338 = EDGE_CURVE ( 'NONE', #386, #386, #186, .T. ) ;
#339 = ORIENTED_EDGE ( 'NONE', *, *, #260, .T. ) ;
#340 = PERSON_AND_ORGANIZATION_ROLE ( 'creator' ) ;
#341 = EDGE_CURVE ( 'NONE', #96, #96, #57, .T. ) ;
#342 = CARTESIAN_POINT ( 'NONE',  ( 1.316288464743861212E-13, 0.000000000000000000, 37.69999999999999574 ) ) ;
#343 = APPLICATION_CONTEXT ( 'configuration controlled 3d designs of mechanical parts and assemblies' ) ;
#344 = PRODUCT_DEFINITION_SHAPE ( 'NONE', 'NONE',  #155 ) ;
#345 = FACE_OUTER_BOUND ( 'NONE', #353, .T. ) ;
#346 = ORIENTED_EDGE ( 'NONE', *, *, #341, .T. ) ;
#347 = CONICAL_SURFACE ( 'NONE', #84, 0.7571501829524910354, 1.047197551196591636 ) ;
#348 = AXIS2_PLACEMENT_3D ( 'NONE', #323, #265, #276 ) ;
#349 = CARTESIAN_POINT ( 'NONE',  ( 6.619266704890104357E-16, 0.000000000000000000, 0.1895833333333332704 ) ) ;
#350 = DIRECTION ( 'NONE',  ( 3.491481338843133355E-15, -0.000000000000000000, 1.000000000000000000 ) ) ;
#351 = CARTESIAN_POINT ( 'NONE',  ( 1.326762908760390423E-13, 1.199999999999993516, 38.00000000000000000 ) ) ;
#352 = AXIS2_PLACEMENT_3D ( 'NONE', #129, #108, #172 ) ;
#353 = EDGE_LOOP ( 'NONE', ( #339 ) ) ;
#354 = APPROVAL_ROLE ( '' ) ;
#355 = ORIENTED_EDGE ( 'NONE', *, *, #90, .T. ) ;
#356 = PERSON_AND_ORGANIZATION ( #235, #361 ) ;
#357 = FACE_OUTER_BOUND ( 'NONE', #239, .T. ) ;
#358 = AXIS2_PLACEMENT_3D ( 'NONE', #230, #350, #381 ) ;
#359 = AXIS2_PLACEMENT_3D ( 'NONE', #9, #307, #161 ) ;
#360 = EDGE_LOOP ( 'NONE', ( #202 ) ) ;
#361 = ORGANIZATION ( 'UNSPECIFIED', 'UNSPECIFIED', '' ) ;
#362 = CARTESIAN_POINT ( 'NONE',  ( 1.316288464743861212E-13, 0.000000000000000000, 37.69999999999999574 ) ) ;
#363 = DIRECTION ( 'NONE',  ( 3.491481338843133355E-15, -0.000000000000000000, 1.000000000000000000 ) ) ;
#364 = APPLICATION_CONTEXT ( 'configuration controlled 3d designs of mechanical parts and assemblies' ) ;
#365 = FACE_OUTER_BOUND ( 'NONE', #360, .T. ) ;
#366 = ORIENTED_EDGE ( 'NONE', *, *, #1, .F. ) ;
#367 =( NAMED_UNIT ( * ) SI_UNIT ( $, .STERADIAN. ) SOLID_ANGLE_UNIT ( ) );
#368 = CARTESIAN_POINT ( 'NONE',  ( 2.444036937190190588E-15, 0.000000000000000000, 0.6999999999999992895 ) ) ;
#369 = ADVANCED_FACE ( 'NONE', ( #148, #3 ), #214, .T. ) ;
#370 = DIRECTION ( 'NONE',  ( 1.000000000000000000, 0.000000000000000000, 0.000000000000000000 ) ) ;
#371 = APPROVAL ( #128, 'UNSPECIFIED' ) ;
#372 = EDGE_LOOP ( 'NONE', ( #316 ) ) ;
#373 = DATE_AND_TIME ( #321, #279 ) ;
#374 = DIRECTION ( 'NONE',  ( 3.491481338843133355E-15, -0.000000000000000000, 1.000000000000000000 ) ) ;
#375 = CIRCLE ( 'NONE', #174, 1.034999999999999920 ) ;
#376 = CARTESIAN_POINT ( 'NONE',  ( 1.200000000000126299, 0.000000000000000000, 37.99999999999999289 ) ) ;
#377 = DIRECTION ( 'NONE',  ( 1.000000000000000000, 0.000000000000000000, -3.514527010858498078E-15 ) ) ;
#378 = DATE_AND_TIME ( #310, #334 ) ;
#379 = ADVANCED_FACE ( 'NONE', ( #357, #152 ), #86, .T. ) ;
#380 = VERTEX_POINT ( 'NONE', #250 ) ;
#381 = DIRECTION ( 'NONE',  ( 1.000000000000000000, 0.000000000000000000, -3.514527010858498078E-15 ) ) ;
#382 = CARTESIAN_POINT ( 'NONE',  ( 0.8329274057836317802, 0.000000000000000000, 0.6999999999999962919 ) ) ;
#383 = FACE_OUTER_BOUND ( 'NONE', #213, .T. ) ;
#384 = ADVANCED_FACE ( 'NONE', ( #302, #329 ), #274, .T. ) ;
#385 = AXIS2_PLACEMENT_3D ( 'NONE', #104, #196, #320 ) ;
#386 = VERTEX_POINT ( 'NONE', #223 ) ;
#387 = DIRECTION ( 'NONE',  ( 3.491481338843133355E-15, -0.000000000000000000, 1.000000000000000000 ) ) ;
#388 = PERSON_AND_ORGANIZATION ( #235, #361 ) ;
#389 = DIRECTION ( 'NONE',  ( 3.491481338843133355E-15, -0.000000000000000000, 1.000000000000000000 ) ) ;
#390 = AXIS2_PLACEMENT_3D ( 'NONE', #7, #124, #370 ) ;
#391 = CC_DESIGN_APPROVAL ( #204, ( #105 ) ) ;
#392 = EDGE_LOOP ( 'NONE', ( #248 ) ) ;
#393 = CC_DESIGN_DATE_AND_TIME_ASSIGNMENT ( #378, #100, ( #271 ) ) ;
#394 = DATE_AND_TIME ( #109, #15 ) ;
#395 = ORIENTED_EDGE ( 'NONE', *, *, #219, .F. ) ;
ENDSEC;
END-ISO-10303-21;
