ISO-10303-21;
HEADER;
FILE_DESCRIPTION (( 'STEP AP203' ),
    '1' );
FILE_NAME ('960459.step',
    '2023-09-27T08:29:52',
    ( '' ),
    ( '' ),
    'SwSTEP 2.0',
    'SolidWorks 2022',
    '' );
FILE_SCHEMA (( 'CONFIG_CONTROL_DESIGN' ));
ENDSEC;

DATA;
#1 = VERTEX_POINT ( 'NONE', #156 ) ;
#2 = AXIS2_PLACEMENT_3D ( 'NONE', #325, #125, #189 ) ;
#3 = CONICAL_SURFACE ( 'NONE', #82, 1.090000000000000080, 1.047197551196610954 ) ;
#4 = PRODUCT_DEFINITION ( 'UNKNOWN', '', #344, #85 ) ;
#5 = DIRECTION ( 'NONE',  ( 3.491481338843133355E-15, -0.000000000000000000, 1.000000000000000000 ) ) ;
#6 = EDGE_LOOP ( 'NONE', ( #60 ) ) ;
#7 = CARTESIAN_POINT ( 'NONE',  ( 0.000000000000000000, 0.000000000000000000, 0.000000000000000000 ) ) ;
#8 = AXIS2_PLACEMENT_3D ( 'NONE', #310, #378, #351 ) ;
#9 = CC_DESIGN_DATE_AND_TIME_ASSIGNMENT ( #160, #163, ( #4 ) ) ;
#10 = DIRECTION ( 'NONE',  ( 1.000000000000000000, 0.000000000000000000, -3.439500613512734371E-15 ) ) ;
#11 = CYLINDRICAL_SURFACE ( 'NONE', #2, 1.090000000000000080 ) ;
#12 = CARTESIAN_POINT ( 'NONE',  ( 1.326762908760390423E-13, 0.000000000000000000, 38.00000000000000000 ) ) ;
#13 = ORIENTED_EDGE ( 'NONE', *, *, #314, .T. ) ;
#14 = LOCAL_TIME ( 10, 29, 52.00000000000000000, #128 ) ;
#15 = PERSON_AND_ORGANIZATION_ROLE ( 'classification_officer' ) ;
#16 = ORIENTED_EDGE ( 'NONE', *, *, #179, .F. ) ;
#17 = EDGE_LOOP ( 'NONE', ( #129 ) ) ;
#18 = PERSON_AND_ORGANIZATION ( #53, #71 ) ;
#19 = CARTESIAN_POINT ( 'NONE',  ( 1.326762908760390423E-13, 0.000000000000000000, 38.00000000000000000 ) ) ;
#20 = EDGE_LOOP ( 'NONE', ( #317 ) ) ;
#21 = CARTESIAN_POINT ( 'NONE',  ( 0.9456624327025946464, 0.000000000000000000, 0.4999999999999971689 ) ) ;
#22 = EDGE_CURVE ( 'NONE', #56, #56, #232, .T. ) ;
#23 = FACE_BOUND ( 'NONE', #17, .T. ) ;
#24 = EDGE_LOOP ( 'NONE', ( #16 ) ) ;
#25 = FACE_BOUND ( 'NONE', #293, .T. ) ;
#26 = DIRECTION ( 'NONE',  ( 3.491481338843133355E-15, -0.000000000000000000, 1.000000000000000000 ) ) ;
#27 = CARTESIAN_POINT ( 'NONE',  ( 4.000655700757801179E-16, 0.000000000000000000, 0.1145833333333345916 ) ) ;
#28 = AXIS2_PLACEMENT_3D ( 'NONE', #318, #50, #140 ) ;
#29 = CONICAL_SURFACE ( 'NONE', #376, 0.9290741737109291520, 0.2617993877991426910 ) ;
#30 = CARTESIAN_POINT ( 'NONE',  ( 1.090000000000000524, 0.000000000000000000, 0.1145833333333307891 ) ) ;
#31 = ADVANCED_FACE ( 'NONE', ( #132, #201 ), #47, .T. ) ;
#32 = APPROVAL_STATUS ( 'not_yet_approved' ) ;
#33 = VERTEX_POINT ( 'NONE', #279 ) ;
#34 = CIRCLE ( 'NONE', #193, 0.9456624327025930921 ) ;
#35 = ADVANCED_FACE ( 'NONE', ( #260 ), #296, .F. ) ;
#36 = APPLICATION_PROTOCOL_DEFINITION ( 'international standard', 'config_control_design', 1994, #353 ) ;
#37 = APPROVAL_PERSON_ORGANIZATION ( #345, #391, #254 ) ;
#38 = DIRECTION ( 'NONE',  ( 1.000000000000000000, 0.000000000000000000, -4.625929269271490844E-15 ) ) ;
#39 =( NAMED_UNIT ( * ) PLANE_ANGLE_UNIT ( ) SI_UNIT ( $, .RADIAN. ) );
#40 = DIRECTION ( 'NONE',  ( 3.491481338843133355E-15, -0.000000000000000000, 1.000000000000000000 ) ) ;
#41 = APPROVAL_DATE_TIME ( #199, #368 ) ;
#42 = CIRCLE ( 'NONE', #80, 1.499999999999996447 ) ;
#43 = ORIENTED_EDGE ( 'NONE', *, *, #114, .F. ) ;
#44 = EDGE_LOOP ( 'NONE', ( #203 ) ) ;
#45 = DIRECTION ( 'NONE',  ( 1.000000000000000000, 0.000000000000000000, -3.469446951953614189E-15 ) ) ;
#46 = APPROVAL ( #369, 'UNSPECIFIED' ) ;
#47 = CYLINDRICAL_SURFACE ( 'NONE', #277, 0.9456624327025930921 ) ;
#48 = FACE_OUTER_BOUND ( 'NONE', #112, .T. ) ;
#49 = CONICAL_SURFACE ( 'NONE', #246, 0.8915358449660654161, 1.047197551196594745 ) ;
#50 = DIRECTION ( 'NONE',  ( 3.491481338843133355E-15, -0.000000000000000000, 1.000000000000000000 ) ) ;
#51 = DIRECTION ( 'NONE',  ( 1.000000000000000000, 0.000000000000000000, -5.782411586589388010E-15 ) ) ;
#52 = DIRECTION ( 'NONE',  ( 1.000000000000000000, 0.000000000000000000, -3.496825623737946072E-15 ) ) ;
#53 = PERSON ( 'UNSPECIFIED', 'UNSPECIFIED', 'UNSPECIFIED', ('UNSPECIFIED'), ('UNSPECIFIED'), ('UNSPECIFIED') ) ;
#54 = CARTESIAN_POINT ( 'NONE',  ( 1.636631877582708111E-15, 0.000000000000000000, 0.4687499999999969469 ) ) ;
#55 = CARTESIAN_POINT ( 'NONE',  ( 2.025059176529017031E-14, 0.000000000000000000, 5.799999999999999822 ) ) ;
#56 = VERTEX_POINT ( 'NONE', #21 ) ;
#57 = EDGE_LOOP ( 'NONE', ( #72 ) ) ;
#58 = DIRECTION ( 'NONE',  ( 1.000000000000000000, 0.000000000000000000, -3.496825623737946072E-15 ) ) ;
#59 = EDGE_CURVE ( 'NONE', #183, #183, #251, .T. ) ;
#60 = ORIENTED_EDGE ( 'NONE', *, *, #143, .T. ) ;
#61 = AXIS2_PLACEMENT_3D ( 'NONE', #135, #165, #10 ) ;
#62 = CIRCLE ( 'NONE', #282, 1.199999999999993516 ) ;
#63 = CC_DESIGN_APPROVAL ( #368, ( #344 ) ) ;
#64 = VERTEX_POINT ( 'NONE', #186 ) ;
#65 = AXIS2_PLACEMENT_3D ( 'NONE', #159, #231, #280 ) ;
#66 = CALENDAR_DATE ( 2023, 27, 9 ) ;
#67 = DIRECTION ( 'NONE',  ( 3.491481338843133355E-15, -0.000000000000000000, 1.000000000000000000 ) ) ;
#68 = PERSON_AND_ORGANIZATION ( #53, #71 ) ;
#69 = ORIENTED_EDGE ( 'NONE', *, *, #357, .T. ) ;
#70 = EDGE_LOOP ( 'NONE', ( #43 ) ) ;
#71 = ORGANIZATION ( 'UNSPECIFIED', 'UNSPECIFIED', '' ) ;
#72 = ORIENTED_EDGE ( 'NONE', *, *, #22, .F. ) ;
#73 = CYLINDRICAL_SURFACE ( 'NONE', #290, 1.090000000000000302 ) ;
#74 = ADVANCED_FACE ( 'NONE', ( #106, #319 ), #73, .T. ) ;
#75 = PERSON_AND_ORGANIZATION ( #53, #71 ) ;
#76 = ORIENTED_EDGE ( 'NONE', *, *, #162, .F. ) ;
#77 = CARTESIAN_POINT ( 'NONE',  ( 1.326762908760390423E-13, 0.000000000000000000, 38.00000000000000000 ) ) ;
#78 = CARTESIAN_POINT ( 'NONE',  ( 2.859363738272477547E-14, 0.000000000000000000, 8.189543236166624496 ) ) ;
#79 = CLOSED_SHELL ( 'NONE', ( #35, #328, #175, #389, #99, #107, #74, #243, #31, #214, #187, #224, #286, #131, #247, #381 ) ) ;
#80 = AXIS2_PLACEMENT_3D ( 'NONE', #261, #312, #265 ) ;
#81 = ORIENTED_EDGE ( 'NONE', *, *, #253, .T. ) ;
#82 = AXIS2_PLACEMENT_3D ( 'NONE', #271, #359, #176 ) ;
#83 = DIRECTION ( 'NONE',  ( 1.000000000000000000, 0.000000000000000000, -3.513057318668114882E-15 ) ) ;
#84 = EDGE_LOOP ( 'NONE', ( #223 ) ) ;
#85 = DESIGN_CONTEXT ( 'detailed design', #353, 'design' ) ;
#86 = PLANE ( 'NONE',  #157 ) ;
#87 = CARTESIAN_POINT ( 'NONE',  ( 7.637615428719239830E-16, 0.000000000000000000, 0.2187499999999967248 ) ) ;
#88 = SECURITY_CLASSIFICATION ( '', '', #169 ) ;
#89 = DIRECTION ( 'NONE',  ( 3.491481338843133355E-15, -0.000000000000000000, 1.000000000000000000 ) ) ;
#90 = DIRECTION ( 'NONE',  ( 3.491481338843133355E-15, -0.000000000000000000, 1.000000000000000000 ) ) ;
#91 = CARTESIAN_POINT ( 'NONE',  ( 1.500000000000127898, 0.000000000000000000, 37.69999999999998863 ) ) ;
#92 = TOROIDAL_SURFACE ( 'NONE', #221, 1.894999999999999352, 1.000000000000000000 ) ;
#93 = CIRCLE ( 'NONE', #65, 1.090000000000000302 ) ;
#94 = CARTESIAN_POINT ( 'NONE',  ( 1.500000000000028644, 0.000000000000000000, 8.189543236166619167 ) ) ;
#95 = MECHANICAL_CONTEXT ( 'NONE', #161, 'mechanical' ) ;
#96 = COORDINATED_UNIVERSAL_TIME_OFFSET ( 1, 0, .AHEAD. ) ;
#97 = DIRECTION ( 'NONE',  ( 1.000000000000000000, 0.000000000000000000, -6.365957710006629809E-15 ) ) ;
#98 = CARTESIAN_POINT ( 'NONE',  ( 1.090000000000000524, 0.000000000000000000, 0.1354166666666618279 ) ) ;
#99 = ADVANCED_FACE ( 'NONE', ( #109, #229 ), #266, .T. ) ;
#100 = APPROVAL_STATUS ( 'not_yet_approved' ) ;
#101 = APPROVAL_DATE_TIME ( #321, #391 ) ;
#102 = ORIENTED_EDGE ( 'NONE', *, *, #114, .T. ) ;
#103 = COORDINATED_UNIVERSAL_TIME_OFFSET ( 1, 0, .AHEAD. ) ;
#104 = AXIS2_PLACEMENT_3D ( 'NONE', #27, #394, #120 ) ;
#105 = DIRECTION ( 'NONE',  ( 3.491481338843133355E-15, -0.000000000000000000, 1.000000000000000000 ) ) ;
#106 = FACE_OUTER_BOUND ( 'NONE', #20, .T. ) ;
#107 = ADVANCED_FACE ( 'NONE', ( #166, #323 ), #375, .T. ) ;
#108 = ORIENTED_EDGE ( 'NONE', *, *, #364, .F. ) ;
#109 = FACE_OUTER_BOUND ( 'NONE', #295, .T. ) ;
#110 = EDGE_LOOP ( 'NONE', ( #222 ) ) ;
#111 = FACE_OUTER_BOUND ( 'NONE', #349, .T. ) ;
#112 = EDGE_LOOP ( 'NONE', ( #326 ) ) ;
#113 = CARTESIAN_POINT ( 'NONE',  ( 9.819791265496200149E-16, 0.000000000000000000, 0.2812499999999967804 ) ) ;
#114 = EDGE_CURVE ( 'NONE', #144, #144, #184, .T. ) ;
#115 = CARTESIAN_POINT ( 'NONE',  ( 1.345675099345788088E-15, 0.000000000000000000, 0.3854166666666658525 ) ) ;
#116 = CARTESIAN_POINT ( 'NONE',  ( 0.000000000000000000, 0.000000000000000000, 0.000000000000000000 ) ) ;
#117 = AXIS2_PLACEMENT_3D ( 'NONE', #78, #5, #45 ) ;
#118 = EDGE_CURVE ( 'NONE', #237, #237, #267, .T. ) ;
#119 = DIRECTION ( 'NONE',  ( 1.000000000000000000, 0.000000000000000000, -3.876477041288956093E-15 ) ) ;
#120 = DIRECTION ( 'NONE',  ( 1.000000000000000000, 0.000000000000000000, -3.493816633812232898E-15 ) ) ;
#121 = DIRECTION ( 'NONE',  ( 1.000000000000000000, 0.000000000000000000, -3.491481338843133355E-15 ) ) ;
#122 = MANIFOLD_SOLID_BREP ( 'Corps-Déplacer/Copier1', #79 ) ;
#123 = LOCAL_TIME ( 10, 29, 52.00000000000000000, #311 ) ;
#124 =( NAMED_UNIT ( * ) SI_UNIT ( $, .STERADIAN. ) SOLID_ANGLE_UNIT ( ) );
#125 = DIRECTION ( 'NONE',  ( 3.491481338843133355E-15, -0.000000000000000000, 1.000000000000000000 ) ) ;
#126 = CARTESIAN_POINT ( 'NONE',  ( 0.9456624327025946464, 0.000000000000000000, 0.4687499999999936162 ) ) ;
#127 = PERSON_AND_ORGANIZATION_ROLE ( 'creator' ) ;
#128 = COORDINATED_UNIVERSAL_TIME_OFFSET ( 1, 0, .AHEAD. ) ;
#129 = ORIENTED_EDGE ( 'NONE', *, *, #262, .T. ) ;
#130 = CALENDAR_DATE ( 2023, 27, 9 ) ;
#131 = ADVANCED_FACE ( 'NONE', ( #297, #111 ), #352, .T. ) ;
#132 = FACE_OUTER_BOUND ( 'NONE', #57, .T. ) ;
#133 = CARTESIAN_POINT ( 'NONE',  ( 1.326762908760390423E-13, 0.000000000000000000, 38.00000000000000000 ) ) ;
#134 = AXIS2_PLACEMENT_3D ( 'NONE', #234, #380, #83 ) ;
#135 = CARTESIAN_POINT ( 'NONE',  ( 1.745740669421568255E-15, 0.000000000000000000, 0.5000000000000004441 ) ) ;
#136 = FACE_OUTER_BOUND ( 'NONE', #373, .T. ) ;
#137 = CIRCLE ( 'NONE', #185, 1.090000000000000080 ) ;
#138 = APPROVAL_ROLE ( '' ) ;
#139 = CARTESIAN_POINT ( 'NONE',  ( 9.819791265496200149E-16, 0.000000000000000000, 0.2812499999999967804 ) ) ;
#140 = DIRECTION ( 'NONE',  ( 1.000000000000000000, 0.000000000000000000, -3.491481338843133355E-15 ) ) ;
#141 = CARTESIAN_POINT ( 'NONE',  ( 1.745740669421566678E-15, 0.9456624327025929810, 0.5000000000000000000 ) ) ;
#142 = ORIENTED_EDGE ( 'NONE', *, *, #118, .F. ) ;
#143 = EDGE_CURVE ( 'NONE', #329, #329, #93, .T. ) ;
#144 = VERTEX_POINT ( 'NONE', #268 ) ;
#145 = CONICAL_SURFACE ( 'NONE', #362, 1.090000000000000302, 1.047197551196611620 ) ;
#146 = AXIS2_PLACEMENT_3D ( 'NONE', #115, #333, #395 ) ;
#147 = FACE_BOUND ( 'NONE', #110, .T. ) ;
#148 = ORIENTED_EDGE ( 'NONE', *, *, #59, .F. ) ;
#149 = DIRECTION ( 'NONE',  ( 1.000000000000000000, 0.000000000000000000, -3.734305667001667220E-15 ) ) ;
#150 = CARTESIAN_POINT ( 'NONE',  ( 2.025059176529017031E-14, 0.000000000000000000, 5.799999999999999822 ) ) ;
#151 = FACE_OUTER_BOUND ( 'NONE', #70, .T. ) ;
#152 = EDGE_LOOP ( 'NONE', ( #270 ) ) ;
#153 = VERTEX_POINT ( 'NONE', #126 ) ;
#154 = EDGE_LOOP ( 'NONE', ( #69 ) ) ;
#155 = CC_DESIGN_PERSON_AND_ORGANIZATION_ASSIGNMENT ( #248, #309, ( #304 ) ) ;
#156 = CARTESIAN_POINT ( 'NONE',  ( 0.9456624327025937582, 0.000000000000000000, 0.2187499999999934219 ) ) ;
#157 = AXIS2_PLACEMENT_3D ( 'NONE', #306, #301, #298 ) ;
#158 = APPROVAL_ROLE ( '' ) ;
#159 = CARTESIAN_POINT ( 'NONE',  ( 1.272935904786564295E-15, 0.000000000000000000, 0.3645833333333348136 ) ) ;
#160 = DATE_AND_TIME ( #313, #123 ) ;
#161 = APPLICATION_CONTEXT ( 'configuration controlled 3d designs of mechanical parts and assemblies' ) ;
#162 = EDGE_CURVE ( 'NONE', #337, #337, #233, .T. ) ;
#163 = DATE_TIME_ROLE ( 'creation_date' ) ;
#164 = EDGE_LOOP ( 'NONE', ( #346 ) ) ;
#165 = DIRECTION ( 'NONE',  ( 3.491481338843133355E-15, -0.000000000000000000, 1.000000000000000000 ) ) ;
#166 = FACE_OUTER_BOUND ( 'NONE', #84, .T. ) ;
#167 = DIRECTION ( 'NONE',  ( 1.000000000000000000, 0.000000000000000000, 0.000000000000000000 ) ) ;
#168 = ORIENTED_EDGE ( 'NONE', *, *, #230, .T. ) ;
#169 = SECURITY_CLASSIFICATION_LEVEL ( 'unclassified' ) ;
#170 = CIRCLE ( 'NONE', #273, 0.9456624327025930921 ) ;
#171 = EDGE_LOOP ( 'NONE', ( #168 ) ) ;
#172 = FACE_OUTER_BOUND ( 'NONE', #44, .T. ) ;
#173 = AXIS2_PLACEMENT_3D ( 'NONE', #387, #177, #388 ) ;
#174 = PERSON_AND_ORGANIZATION_ROLE ( 'design_supplier' ) ;
#175 = ADVANCED_FACE ( 'NONE', ( #48, #202 ), #11, .T. ) ;
#176 = DIRECTION ( 'NONE',  ( -1.000000000000000000, 0.000000000000000000, 3.481383122659876478E-15 ) ) ;
#177 = DIRECTION ( 'NONE',  ( 3.491481338843133355E-15, -0.000000000000000000, 1.000000000000000000 ) ) ;
#178 = APPROVAL_PERSON_ORGANIZATION ( #281, #368, #138 ) ;
#179 = EDGE_CURVE ( 'NONE', #216, #216, #62, .T. ) ;
#180 = CARTESIAN_POINT ( 'NONE',  ( 4.728047646350040591E-16, 0.000000000000000000, 0.1354166666666656305 ) ) ;
#181 = CARTESIAN_POINT ( 'NONE',  ( 2.115425363140279297E-14, 0.000000000000000000, 6.058819045102511680 ) ) ;
#182 = ORIENTED_EDGE ( 'NONE', *, *, #218, .F. ) ;
#183 = VERTEX_POINT ( 'NONE', #30 ) ;
#184 = CIRCLE ( 'NONE', #8, 0.9290741737109291520 ) ;
#185 = AXIS2_PLACEMENT_3D ( 'NONE', #180, #300, #360 ) ;
#186 = CARTESIAN_POINT ( 'NONE',  ( 0.9456624327025939802, 0.000000000000000000, 0.2812499999999934497 ) ) ;
#187 = ADVANCED_FACE ( 'NONE', ( #347, #136 ), #340, .T. ) ;
#188 = APPROVAL_DATE_TIME ( #219, #46 ) ;
#189 = DIRECTION ( 'NONE',  ( 1.000000000000000000, 0.000000000000000000, -6.365957710006631387E-15 ) ) ;
#190 = APPLICATION_PROTOCOL_DEFINITION ( 'international standard', 'config_control_design', 1994, #161 ) ;
#191 = CC_DESIGN_DATE_AND_TIME_ASSIGNMENT ( #372, #194, ( #88 ) ) ;
#192 = EDGE_LOOP ( 'NONE', ( #142 ) ) ;
#193 = AXIS2_PLACEMENT_3D ( 'NONE', #54, #269, #52 ) ;
#194 = DATE_TIME_ROLE ( 'classification_date' ) ;
#195 = DIRECTION ( 'NONE',  ( 1.000000000000000000, 0.000000000000000000, 0.000000000000000000 ) ) ;
#196 = DIRECTION ( 'NONE',  ( -1.000000000000000000, 0.000000000000000000, 3.491481338843133355E-15 ) ) ;
#197 = EDGE_LOOP ( 'NONE', ( #355 ) ) ;
#198 = DIRECTION ( 'NONE',  ( 3.491481338843133355E-15, -0.000000000000000000, 1.000000000000000000 ) ) ;
#199 = DATE_AND_TIME ( #259, #14 ) ;
#200 = AXIS2_PLACEMENT_3D ( 'NONE', #12, #367, #294 ) ;
#201 = FACE_OUTER_BOUND ( 'NONE', #343, .T. ) ;
#202 = FACE_OUTER_BOUND ( 'NONE', #305, .T. ) ;
#203 = ORIENTED_EDGE ( 'NONE', *, *, #22, .T. ) ;
#204 = FACE_OUTER_BOUND ( 'NONE', #240, .T. ) ;
#205 = EDGE_LOOP ( 'NONE', ( #238 ) ) ;
#206 = FACE_OUTER_BOUND ( 'NONE', #171, .T. ) ;
#207 = EDGE_CURVE ( 'NONE', #213, #213, #42, .T. ) ;
#208 = DIRECTION ( 'NONE',  ( -3.491481338843133355E-15, 0.000000000000000000, -1.000000000000000000 ) ) ;
#209 = AXIS2_PLACEMENT_3D ( 'NONE', #139, #228, #285 ) ;
#210 = LOCAL_TIME ( 10, 29, 52.00000000000000000, #103 ) ;
#211 = DIRECTION ( 'NONE',  ( -3.491481338843133355E-15, 0.000000000000000000, -1.000000000000000000 ) ) ;
#212 = DIRECTION ( 'NONE',  ( 1.000000000000000000, 0.000000000000000000, -3.491481338843133355E-15 ) ) ;
#213 = VERTEX_POINT ( 'NONE', #91 ) ;
#214 = ADVANCED_FACE ( 'NONE', ( #288, #172 ), #257, .F. ) ;
#215 = ADVANCED_BREP_SHAPE_REPRESENTATION ( '960459', ( #122, #278 ), #307 ) ;
#216 = VERTEX_POINT ( 'NONE', #275 ) ;
#217 = CARTESIAN_POINT ( 'NONE',  ( 1.090000000000001634, 0.000000000000000000, 0.3645833333333310389 ) ) ;
#218 = EDGE_CURVE ( 'NONE', #64, #64, #170, .T. ) ;
#219 = DATE_AND_TIME ( #66, #330 ) ;
#220 = DIRECTION ( 'NONE',  ( 3.491481338843133355E-15, -0.000000000000000000, 1.000000000000000000 ) ) ;
#221 = AXIS2_PLACEMENT_3D ( 'NONE', #150, #89, #121 ) ;
#222 = ORIENTED_EDGE ( 'NONE', *, *, #253, .F. ) ;
#223 = ORIENTED_EDGE ( 'NONE', *, *, #143, .F. ) ;
#224 = ADVANCED_FACE ( 'NONE', ( #151, #206 ), #92, .F. ) ;
#225 = AXIS2_PLACEMENT_3D ( 'NONE', #242, #208, #274 ) ;
#226 = CC_DESIGN_SECURITY_CLASSIFICATION ( #88, ( #344 ) ) ;
#227 = PERSON_AND_ORGANIZATION_ROLE ( 'creator' ) ;
#228 = DIRECTION ( 'NONE',  ( 3.491481338843133355E-15, -0.000000000000000000, 1.000000000000000000 ) ) ;
#229 = FACE_OUTER_BOUND ( 'NONE', #197, .T. ) ;
#230 = EDGE_CURVE ( 'NONE', #276, #276, #324, .T. ) ;
#231 = DIRECTION ( 'NONE',  ( 3.491481338843133355E-15, -0.000000000000000000, 1.000000000000000000 ) ) ;
#232 = CIRCLE ( 'NONE', #61, 0.9456624327025929810 ) ;
#233 = CIRCLE ( 'NONE', #117, 1.500000000000000000 ) ;
#234 = CARTESIAN_POINT ( 'NONE',  ( 1.745740669421568255E-15, 0.000000000000000000, 0.5000000000000004441 ) ) ;
#235 = CC_DESIGN_APPROVAL ( #46, ( #4 ) ) ;
#236 = ORIENTED_EDGE ( 'NONE', *, *, #262, .F. ) ;
#237 = VERTEX_POINT ( 'NONE', #354 ) ;
#238 = ORIENTED_EDGE ( 'NONE', *, *, #207, .T. ) ;
#239 = FACE_BOUND ( 'NONE', #24, .T. ) ;
#240 = EDGE_LOOP ( 'NONE', ( #76 ) ) ;
#241 = CARTESIAN_POINT ( 'NONE',  ( 1.345675099345788088E-15, 0.000000000000000000, 0.3854166666666658525 ) ) ;
#242 = CARTESIAN_POINT ( 'NONE',  ( 1.316288464743861212E-13, 0.000000000000000000, 37.69999999999999574 ) ) ;
#243 = ADVANCED_FACE ( 'NONE', ( #147, #272 ), #145, .T. ) ;
#244 = DIRECTION ( 'NONE',  ( 3.491481338843133355E-15, -0.000000000000000000, 1.000000000000000000 ) ) ;
#245 = AXIS2_PLACEMENT_3D ( 'NONE', #19, #67, #167 ) ;
#246 = AXIS2_PLACEMENT_3D ( 'NONE', #116, #90, #212 ) ;
#247 = ADVANCED_FACE ( 'NONE', ( #239, #327 ), #370, .T. ) ;
#248 = PERSON_AND_ORGANIZATION ( #53, #71 ) ;
#249 = CARTESIAN_POINT ( 'NONE',  ( 1.326762908760390423E-13, 0.000000000000000000, 38.00000000000000000 ) ) ;
#250 = VERTEX_POINT ( 'NONE', #335 ) ;
#251 = CIRCLE ( 'NONE', #104, 1.090000000000000080 ) ;
#252 = AXIS2_PLACEMENT_3D ( 'NONE', #87, #356, #58 ) ;
#253 = EDGE_CURVE ( 'NONE', #153, #153, #34, .T. ) ;
#254 = APPROVAL_ROLE ( '' ) ;
#255 = EDGE_LOOP ( 'NONE', ( #348 ) ) ;
#256 = SHAPE_DEFINITION_REPRESENTATION ( #334, #215 ) ;
#257 = PLANE ( 'NONE',  #316 ) ;
#258 = CIRCLE ( 'NONE', #173, 0.8915358449660654161 ) ;
#259 = CALENDAR_DATE ( 2023, 27, 9 ) ;
#260 = FACE_OUTER_BOUND ( 'NONE', #284, .T. ) ;
#261 = CARTESIAN_POINT ( 'NONE',  ( 1.316288464743861212E-13, 0.000000000000000000, 37.69999999999999574 ) ) ;
#262 = EDGE_CURVE ( 'NONE', #250, #250, #258, .T. ) ;
#263 = COORDINATED_UNIVERSAL_TIME_OFFSET ( 1, 0, .AHEAD. ) ;
#264 = ORIENTED_EDGE ( 'NONE', *, *, #59, .T. ) ;
#265 = DIRECTION ( 'NONE',  ( 1.000000000000000000, 0.000000000000000000, -4.625929269271496366E-15 ) ) ;
#266 = CYLINDRICAL_SURFACE ( 'NONE', #200, 0.9456624327025930921 ) ;
#267 = CIRCLE ( 'NONE', #134, 0.8950000000000000178 ) ;
#268 = CARTESIAN_POINT ( 'NONE',  ( 0.9290741737109502463, 0.000000000000000000, 6.058819045102508127 ) ) ;
#269 = DIRECTION ( 'NONE',  ( 3.491481338843133355E-15, -0.000000000000000000, 1.000000000000000000 ) ) ;
#270 = ORIENTED_EDGE ( 'NONE', *, *, #230, .F. ) ;
#271 = CARTESIAN_POINT ( 'NONE',  ( 4.728047646350040591E-16, 0.000000000000000000, 0.1354166666666656305 ) ) ;
#272 = FACE_OUTER_BOUND ( 'NONE', #154, .T. ) ;
#273 = AXIS2_PLACEMENT_3D ( 'NONE', #113, #40, #393 ) ;
#274 = DIRECTION ( 'NONE',  ( -1.000000000000000000, 0.000000000000000000, 4.625929269271496366E-15 ) ) ;
#275 = CARTESIAN_POINT ( 'NONE',  ( 1.200000000000126299, 0.000000000000000000, 37.99999999999999289 ) ) ;
#276 = VERTEX_POINT ( 'NONE', #342 ) ;
#277 = AXIS2_PLACEMENT_3D ( 'NONE', #287, #105, #195 ) ;
#278 = AXIS2_PLACEMENT_3D ( 'NONE', #7, #339, #363 ) ;
#279 = CARTESIAN_POINT ( 'NONE',  ( 1.090000000000001634, 0.000000000000000000, 0.3854166666666620777 ) ) ;
#280 = DIRECTION ( 'NONE',  ( 1.000000000000000000, 0.000000000000000000, -3.481383122659875689E-15 ) ) ;
#281 = PERSON_AND_ORGANIZATION ( #53, #71 ) ;
#282 = AXIS2_PLACEMENT_3D ( 'NONE', #249, #198, #51 ) ;
#283 = PRODUCT_RELATED_PRODUCT_CATEGORY ( 'detail', '', ( #304 ) ) ;
#284 = EDGE_LOOP ( 'NONE', ( #236 ) ) ;
#285 = DIRECTION ( 'NONE',  ( 1.000000000000000000, 0.000000000000000000, -3.496825623737946072E-15 ) ) ;
#286 = ADVANCED_FACE ( 'NONE', ( #204, #331 ), #29, .T. ) ;
#287 = CARTESIAN_POINT ( 'NONE',  ( 1.326762908760390423E-13, 0.000000000000000000, 38.00000000000000000 ) ) ;
#288 = FACE_BOUND ( 'NONE', #192, .T. ) ;
#289 = ORIENTED_EDGE ( 'NONE', *, *, #118, .T. ) ;
#290 = AXIS2_PLACEMENT_3D ( 'NONE', #133, #350, #97 ) ;
#291 = LOCAL_TIME ( 10, 29, 52.00000000000000000, #263 ) ;
#292 = PERSON_AND_ORGANIZATION ( #53, #71 ) ;
#293 = EDGE_LOOP ( 'NONE', ( #108 ) ) ;
#294 = DIRECTION ( 'NONE',  ( 1.000000000000000000, 0.000000000000000000, 0.000000000000000000 ) ) ;
#295 = EDGE_LOOP ( 'NONE', ( #182 ) ) ;
#296 = PLANE ( 'NONE',  #28 ) ;
#297 = FACE_OUTER_BOUND ( 'NONE', #365, .T. ) ;
#298 = DIRECTION ( 'NONE',  ( -1.000000000000000000, 0.000000000000000000, 3.491481338843133355E-15 ) ) ;
#299 = CIRCLE ( 'NONE', #146, 1.090000000000000302 ) ;
#300 = DIRECTION ( 'NONE',  ( 3.491481338843133355E-15, -0.000000000000000000, 1.000000000000000000 ) ) ;
#301 = DIRECTION ( 'NONE',  ( -3.491481338843133355E-15, 0.000000000000000000, -1.000000000000000000 ) ) ;
#302 = DIRECTION ( 'NONE',  ( -1.000000000000000000, 0.000000000000000000, 3.481383122659875689E-15 ) ) ;
#303 = CC_DESIGN_PERSON_AND_ORGANIZATION_ASSIGNMENT ( #68, #127, ( #4 ) ) ;
#304 = PRODUCT ( '960459', '960459', '', ( #95 ) ) ;
#305 = EDGE_LOOP ( 'NONE', ( #264 ) ) ;
#306 = CARTESIAN_POINT ( 'NONE',  ( 1.326762908760390423E-13, 1.199999999999993516, 38.00000000000000000 ) ) ;
#307 =( GEOMETRIC_REPRESENTATION_CONTEXT ( 3 ) GLOBAL_UNCERTAINTY_ASSIGNED_CONTEXT ( ( #386 ) ) GLOBAL_UNIT_ASSIGNED_CONTEXT ( ( #338, #39, #124 ) ) REPRESENTATION_CONTEXT ( 'NONE', 'WORKASPACE' ) );
#308 = VERTEX_POINT ( 'NONE', #98 ) ;
#309 = PERSON_AND_ORGANIZATION_ROLE ( 'design_owner' ) ;
#310 = CARTESIAN_POINT ( 'NONE',  ( 2.115425363140279297E-14, 0.000000000000000000, 6.058819045102511680 ) ) ;
#311 = COORDINATED_UNIVERSAL_TIME_OFFSET ( 1, 0, .AHEAD. ) ;
#312 = DIRECTION ( 'NONE',  ( 3.491481338843133355E-15, -0.000000000000000000, 1.000000000000000000 ) ) ;
#313 = CALENDAR_DATE ( 2023, 27, 9 ) ;
#314 = EDGE_CURVE ( 'NONE', #308, #308, #137, .T. ) ;
#315 = AXIS2_PLACEMENT_3D ( 'NONE', #55, #244, #119 ) ;
#316 = AXIS2_PLACEMENT_3D ( 'NONE', #141, #382, #196 ) ;
#317 = ORIENTED_EDGE ( 'NONE', *, *, #357, .F. ) ;
#318 = CARTESIAN_POINT ( 'NONE',  ( -8.213400348742087558E-33, 0.000000000000000000, -2.352411355423000241E-18 ) ) ;
#319 = FACE_OUTER_BOUND ( 'NONE', #6, .T. ) ;
#320 = EDGE_LOOP ( 'NONE', ( #148 ) ) ;
#321 = DATE_AND_TIME ( #379, #210 ) ;
#322 = EDGE_LOOP ( 'NONE', ( #102 ) ) ;
#323 = FACE_BOUND ( 'NONE', #255, .T. ) ;
#324 = CIRCLE ( 'NONE', #315, 0.8949999999999995737 ) ;
#325 = CARTESIAN_POINT ( 'NONE',  ( 1.326762908760390423E-13, 0.000000000000000000, 38.00000000000000000 ) ) ;
#326 = ORIENTED_EDGE ( 'NONE', *, *, #314, .F. ) ;
#327 = FACE_OUTER_BOUND ( 'NONE', #205, .T. ) ;
#328 = ADVANCED_FACE ( 'NONE', ( #361, #23 ), #49, .T. ) ;
#329 = VERTEX_POINT ( 'NONE', #217 ) ;
#330 = LOCAL_TIME ( 10, 29, 52.00000000000000000, #96 ) ;
#331 = FACE_BOUND ( 'NONE', #322, .T. ) ;
#332 = FACE_OUTER_BOUND ( 'NONE', #164, .T. ) ;
#333 = DIRECTION ( 'NONE',  ( 3.491481338843133355E-15, -0.000000000000000000, 1.000000000000000000 ) ) ;
#334 = PRODUCT_DEFINITION_SHAPE ( 'NONE', 'NONE',  #4 ) ;
#335 = CARTESIAN_POINT ( 'NONE',  ( 0.8915358449660654161, 0.000000000000000000, -3.112780765608762311E-15 ) ) ;
#336 = AXIS2_PLACEMENT_3D ( 'NONE', #77, #220, #38 ) ;
#337 = VERTEX_POINT ( 'NONE', #94 ) ;
#338 =( LENGTH_UNIT ( ) NAMED_UNIT ( * ) SI_UNIT ( .MILLI., .METRE. ) );
#339 = DIRECTION ( 'NONE',  ( 0.000000000000000000, 0.000000000000000000, 1.000000000000000000 ) ) ;
#340 = CYLINDRICAL_SURFACE ( 'NONE', #245, 0.8949999999999997957 ) ;
#341 = CC_DESIGN_PERSON_AND_ORGANIZATION_ASSIGNMENT ( #75, #227, ( #344 ) ) ;
#342 = CARTESIAN_POINT ( 'NONE',  ( 0.8950000000000197797, 0.000000000000000000, 5.799999999999996270 ) ) ;
#343 = EDGE_LOOP ( 'NONE', ( #81 ) ) ;
#344 = PRODUCT_DEFINITION_FORMATION_WITH_SPECIFIED_SOURCE ( 'ANY', '', #304, .NOT_KNOWN. ) ;
#345 = PERSON_AND_ORGANIZATION ( #53, #71 ) ;
#346 = ORIENTED_EDGE ( 'NONE', *, *, #179, .T. ) ;
#347 = FACE_OUTER_BOUND ( 'NONE', #152, .T. ) ;
#348 = ORIENTED_EDGE ( 'NONE', *, *, #218, .T. ) ;
#349 = EDGE_LOOP ( 'NONE', ( #384 ) ) ;
#350 = DIRECTION ( 'NONE',  ( 3.491481338843133355E-15, -0.000000000000000000, 1.000000000000000000 ) ) ;
#351 = DIRECTION ( 'NONE',  ( 1.000000000000000000, 0.000000000000000000, -3.734305667001667220E-15 ) ) ;
#352 = CYLINDRICAL_SURFACE ( 'NONE', #336, 1.499999999999998224 ) ;
#353 = APPLICATION_CONTEXT ( 'configuration controlled 3d designs of mechanical parts and assemblies' ) ;
#354 = CARTESIAN_POINT ( 'NONE',  ( 0.8950000000000017941, 0.000000000000000000, 0.4999999999999972800 ) ) ;
#355 = ORIENTED_EDGE ( 'NONE', *, *, #364, .T. ) ;
#356 = DIRECTION ( 'NONE',  ( 3.491481338843133355E-15, -0.000000000000000000, 1.000000000000000000 ) ) ;
#357 = EDGE_CURVE ( 'NONE', #33, #33, #299, .T. ) ;
#358 = APPROVAL_PERSON_ORGANIZATION ( #366, #46, #158 ) ;
#359 = DIRECTION ( 'NONE',  ( -3.491481338843133355E-15, 0.000000000000000000, -1.000000000000000000 ) ) ;
#360 = DIRECTION ( 'NONE',  ( 1.000000000000000000, 0.000000000000000000, -3.481383122659876478E-15 ) ) ;
#361 = FACE_OUTER_BOUND ( 'NONE', #320, .T. ) ;
#362 = AXIS2_PLACEMENT_3D ( 'NONE', #241, #211, #302 ) ;
#363 = DIRECTION ( 'NONE',  ( 1.000000000000000000, 0.000000000000000000, 0.000000000000000000 ) ) ;
#364 = EDGE_CURVE ( 'NONE', #1, #1, #371, .T. ) ;
#365 = EDGE_LOOP ( 'NONE', ( #383 ) ) ;
#366 = PERSON_AND_ORGANIZATION ( #53, #71 ) ;
#367 = DIRECTION ( 'NONE',  ( 3.491481338843133355E-15, -0.000000000000000000, 1.000000000000000000 ) ) ;
#368 = APPROVAL ( #32, 'UNSPECIFIED' ) ;
#369 = APPROVAL_STATUS ( 'not_yet_approved' ) ;
#370 = CONICAL_SURFACE ( 'NONE', #225, 1.499999999999996447, 0.7853981633974501664 ) ;
#371 = CIRCLE ( 'NONE', #252, 0.9456624327025930921 ) ;
#372 = DATE_AND_TIME ( #130, #291 ) ;
#373 = EDGE_LOOP ( 'NONE', ( #289 ) ) ;
#374 = CC_DESIGN_PERSON_AND_ORGANIZATION_ASSIGNMENT ( #292, #15, ( #88 ) ) ;
#375 = CONICAL_SURFACE ( 'NONE', #209, 0.9456624327025930921, 1.047197551196575649 ) ;
#376 = AXIS2_PLACEMENT_3D ( 'NONE', #181, #26, #149 ) ;
#377 = EDGE_LOOP ( 'NONE', ( #13 ) ) ;
#378 = DIRECTION ( 'NONE',  ( 3.491481338843133355E-15, -0.000000000000000000, 1.000000000000000000 ) ) ;
#379 = CALENDAR_DATE ( 2023, 27, 9 ) ;
#380 = DIRECTION ( 'NONE',  ( 3.491481338843133355E-15, -0.000000000000000000, 1.000000000000000000 ) ) ;
#381 = ADVANCED_FACE ( 'NONE', ( #332 ), #86, .F. ) ;
#382 = DIRECTION ( 'NONE',  ( -3.491481338843133355E-15, 0.000000000000000000, -1.000000000000000000 ) ) ;
#383 = ORIENTED_EDGE ( 'NONE', *, *, #207, .F. ) ;
#384 = ORIENTED_EDGE ( 'NONE', *, *, #162, .T. ) ;
#385 = CC_DESIGN_PERSON_AND_ORGANIZATION_ASSIGNMENT ( #18, #174, ( #344 ) ) ;
#386 = UNCERTAINTY_MEASURE_WITH_UNIT (LENGTH_MEASURE( 1.000000000000000082E-05 ), #338, 'distance_accuracy_value', 'NONE');
#387 = CARTESIAN_POINT ( 'NONE',  ( 0.000000000000000000, 0.000000000000000000, 0.000000000000000000 ) ) ;
#388 = DIRECTION ( 'NONE',  ( 1.000000000000000000, 0.000000000000000000, -3.491481338843133355E-15 ) ) ;
#389 = ADVANCED_FACE ( 'NONE', ( #25, #390 ), #3, .T. ) ;
#390 = FACE_OUTER_BOUND ( 'NONE', #377, .T. ) ;
#391 = APPROVAL ( #100, 'UNSPECIFIED' ) ;
#392 = CC_DESIGN_APPROVAL ( #391, ( #88 ) ) ;
#393 = DIRECTION ( 'NONE',  ( 1.000000000000000000, 0.000000000000000000, -3.496825623737946072E-15 ) ) ;
#394 = DIRECTION ( 'NONE',  ( 3.491481338843133355E-15, -0.000000000000000000, 1.000000000000000000 ) ) ;
#395 = DIRECTION ( 'NONE',  ( 1.000000000000000000, 0.000000000000000000, -3.481383122659875689E-15 ) ) ;
ENDSEC;
END-ISO-10303-21;
