ISO-10303-21;
HEADER;
FILE_DESCRIPTION (( 'STEP AP203' ),
    '1' );
FILE_NAME ('960456.step',
    '2023-09-27T08:29:51',
    ( '' ),
    ( '' ),
    'SwSTEP 2.0',
    'SolidWorks 2022',
    '' );
FILE_SCHEMA (( 'CONFIG_CONTROL_DESIGN' ));
ENDSEC;

DATA;
#1 = ADVANCED_FACE ( 'NONE', ( #336, #145 ), #262, .T. ) ;
#2 = AXIS2_PLACEMENT_3D ( 'NONE', #18, #108, #385 ) ;
#3 = CIRCLE ( 'NONE', #343, 0.8349999999999998535 ) ;
#4 = CARTESIAN_POINT ( 'NONE',  ( 1.871021669421260278E-14, 0.000000000000000000, 5.358819045102512391 ) ) ;
#5 = DATE_AND_TIME ( #244, #341 ) ;
#6 = DIRECTION ( 'NONE',  ( 3.491481338843133355E-15, -0.000000000000000000, 1.000000000000000000 ) ) ;
#7 = CIRCLE ( 'NONE', #21, 0.5751923788646665647 ) ;
#8 = CC_DESIGN_APPROVAL ( #45, ( #37 ) ) ;
#9 = EDGE_CURVE ( 'NONE', #34, #34, #70, .T. ) ;
#10 = DIRECTION ( 'NONE',  ( 3.491481338843133355E-15, -0.000000000000000000, 1.000000000000000000 ) ) ;
#11 = DIRECTION ( 'NONE',  ( 1.000000000000000000, 0.000000000000000000, -3.491481338843133750E-15 ) ) ;
#12 = CONICAL_SURFACE ( 'NONE', #215, 0.8349999999999998535, 1.047197551196608067 ) ;
#13 = CARTESIAN_POINT ( 'NONE',  ( 1.374770777169477842E-15, 0.000000000000000000, 0.3937499999999982681 ) ) ;
#14 = CC_DESIGN_PERSON_AND_ORGANIZATION_ASSIGNMENT ( #127, #314, ( #392 ) ) ;
#15 = FACE_OUTER_BOUND ( 'NONE', #165, .T. ) ;
#16 = CYLINDRICAL_SURFACE ( 'NONE', #2, 0.4799999999999997602 ) ;
#17 = CARTESIAN_POINT ( 'NONE',  ( 0.000000000000000000, 0.000000000000000000, 0.000000000000000000 ) ) ;
#18 = CARTESIAN_POINT ( 'NONE',  ( 1.326762908760390423E-13, 0.000000000000000000, 38.00000000000000000 ) ) ;
#19 = EDGE_LOOP ( 'NONE', ( #28 ) ) ;
#20 = APPROVAL_STATUS ( 'not_yet_approved' ) ;
#21 = AXIS2_PLACEMENT_3D ( 'NONE', #136, #46, #164 ) ;
#22 = ORIENTED_EDGE ( 'NONE', *, *, #178, .T. ) ;
#23 = PERSON_AND_ORGANIZATION_ROLE ( 'creator' ) ;
#24 = CYLINDRICAL_SURFACE ( 'NONE', #155, 0.8349999999999998535 ) ;
#25 = EDGE_LOOP ( 'NONE', ( #364 ) ) ;
#26 = CIRCLE ( 'NONE', #267, 0.8349999999999999645 ) ;
#27 = DIRECTION ( 'NONE',  ( 3.491481338843133355E-15, -0.000000000000000000, 1.000000000000000000 ) ) ;
#28 = ORIENTED_EDGE ( 'NONE', *, *, #150, .T. ) ;
#29 = CIRCLE ( 'NONE', #79, 1.199999999999993516 ) ;
#30 = CIRCLE ( 'NONE', #376, 0.5751923788646665647 ) ;
#31 = AXIS2_PLACEMENT_3D ( 'NONE', #203, #359, #301 ) ;
#32 = APPROVAL_PERSON_ORGANIZATION ( #199, #226, #142 ) ;
#33 = SHAPE_DEFINITION_REPRESENTATION ( #117, #159 ) ;
#34 = VERTEX_POINT ( 'NONE', #323 ) ;
#35 = DIRECTION ( 'NONE',  ( 3.491481338843133355E-15, -0.000000000000000000, 1.000000000000000000 ) ) ;
#36 = PERSON_AND_ORGANIZATION ( #133, #315 ) ;
#37 = PRODUCT_DEFINITION ( 'UNKNOWN', '', #298, #273 ) ;
#38 = EDGE_LOOP ( 'NONE', ( #162 ) ) ;
#39 = AXIS2_PLACEMENT_3D ( 'NONE', #17, #320, #11 ) ;
#40 = AXIS2_PLACEMENT_3D ( 'NONE', #104, #189, #140 ) ;
#41 = ORIENTED_EDGE ( 'NONE', *, *, #310, .F. ) ;
#42 = FACE_OUTER_BOUND ( 'NONE', #207, .T. ) ;
#43 = DIRECTION ( 'NONE',  ( 1.000000000000000000, 0.000000000000000000, -3.581382861484573220E-15 ) ) ;
#44 = DIRECTION ( 'NONE',  ( 1.000000000000000000, 0.000000000000000000, -3.505803431989056828E-15 ) ) ;
#45 = APPROVAL ( #20, 'UNSPECIFIED' ) ;
#46 = DIRECTION ( 'NONE',  ( 3.491481338843133355E-15, -0.000000000000000000, 1.000000000000000000 ) ) ;
#47 = DIRECTION ( 'NONE',  ( -3.491481338843133355E-15, 0.000000000000000000, -1.000000000000000000 ) ) ;
#48 = AXIS2_PLACEMENT_3D ( 'NONE', #4, #51, #193 ) ;
#49 = EDGE_LOOP ( 'NONE', ( #146 ) ) ;
#50 = DIRECTION ( 'NONE',  ( -1.000000000000000000, 0.000000000000000000, 3.491481338843133355E-15 ) ) ;
#51 = DIRECTION ( 'NONE',  ( 3.491481338843133355E-15, -0.000000000000000000, 1.000000000000000000 ) ) ;
#52 = DIRECTION ( 'NONE',  ( -1.000000000000000000, 0.000000000000000000, 3.491481338843133355E-15 ) ) ;
#53 = CARTESIAN_POINT ( 'NONE',  ( 0.8350000000000006306, 0.000000000000000000, 0.2062499999999951872 ) ) ;
#54 = EDGE_LOOP ( 'NONE', ( #357 ) ) ;
#55 = EDGE_LOOP ( 'NONE', ( #134 ) ) ;
#56 = VERTEX_POINT ( 'NONE', #210 ) ;
#57 = DIRECTION ( 'NONE',  ( 1.000000000000000000, 0.000000000000000000, 0.000000000000000000 ) ) ;
#58 = VERTEX_POINT ( 'NONE', #182 ) ;
#59 = DIRECTION ( 'NONE',  ( 3.491481338843133355E-15, -0.000000000000000000, 1.000000000000000000 ) ) ;
#60 = APPLICATION_PROTOCOL_DEFINITION ( 'international standard', 'config_control_design', 1994, #156 ) ;
#61 = CARTESIAN_POINT ( 'NONE',  ( 8.510485763430169108E-16, 0.000000000000000000, 0.2437500000000009104 ) ) ;
#62 = AXIS2_PLACEMENT_3D ( 'NONE', #197, #65, #101 ) ;
#63 = AXIS2_PLACEMENT_3D ( 'NONE', #258, #379, #349 ) ;
#64 = DATE_AND_TIME ( #161, #111 ) ;
#65 = DIRECTION ( 'NONE',  ( 3.491481338843133355E-15, -0.000000000000000000, 1.000000000000000000 ) ) ;
#66 = CC_DESIGN_DATE_AND_TIME_ASSIGNMENT ( #232, #365, ( #37 ) ) ;
#67 = FACE_BOUND ( 'NONE', #305, .T. ) ;
#68 = ORIENTED_EDGE ( 'NONE', *, *, #373, .T. ) ;
#69 = CIRCLE ( 'NONE', #124, 0.5751923788646665647 ) ;
#70 = CIRCLE ( 'NONE', #31, 1.500000000000000000 ) ;
#71 = CARTESIAN_POINT ( 'NONE',  ( 1.767562427789335472E-15, 0.000000000000000000, 0.5062499999999997558 ) ) ;
#72 = EDGE_CURVE ( 'NONE', #94, #94, #333, .T. ) ;
#73 = DIRECTION ( 'NONE',  ( 1.000000000000000000, 0.000000000000000000, 0.000000000000000000 ) ) ;
#74 = FACE_OUTER_BOUND ( 'NONE', #236, .T. ) ;
#75 = EDGE_LOOP ( 'NONE', ( #89 ) ) ;
#76 = CARTESIAN_POINT ( 'NONE',  ( 1.326762908760390423E-13, 1.199999999999993516, 38.00000000000000000 ) ) ;
#77 = DIRECTION ( 'NONE',  ( 1.000000000000000000, 0.000000000000000000, -3.581382861484573220E-15 ) ) ;
#78 = DIRECTION ( 'NONE',  ( 3.491481338843133355E-15, -0.000000000000000000, 1.000000000000000000 ) ) ;
#79 = AXIS2_PLACEMENT_3D ( 'NONE', #129, #106, #96 ) ;
#80 = CIRCLE ( 'NONE', #316, 0.8349999999999999645 ) ;
#81 = FACE_OUTER_BOUND ( 'NONE', #377, .T. ) ;
#82 = CARTESIAN_POINT ( 'NONE',  ( 1.326762908760390423E-13, 0.000000000000000000, 38.00000000000000000 ) ) ;
#83 = VERTEX_POINT ( 'NONE', #274 ) ;
#84 = DIRECTION ( 'NONE',  ( 3.491481338843133355E-15, -0.000000000000000000, 1.000000000000000000 ) ) ;
#85 = FACE_BOUND ( 'NONE', #98, .T. ) ;
#86 = COORDINATED_UNIVERSAL_TIME_OFFSET ( 1, 0, .AHEAD. ) ;
#87 = EDGE_LOOP ( 'NONE', ( #391 ) ) ;
#88 = PERSON_AND_ORGANIZATION_ROLE ( 'creator' ) ;
#89 = ORIENTED_EDGE ( 'NONE', *, *, #72, .F. ) ;
#90 =( NAMED_UNIT ( * ) SI_UNIT ( $, .STERADIAN. ) SOLID_ANGLE_UNIT ( ) );
#91 = ORIENTED_EDGE ( 'NONE', *, *, #300, .T. ) ;
#92 = CARTESIAN_POINT ( 'NONE',  ( 0.4800000000000030909, 0.000000000000000000, 0.8999999999999963585 ) ) ;
#93 = COORDINATED_UNIVERSAL_TIME_OFFSET ( 1, 0, .AHEAD. ) ;
#94 = VERTEX_POINT ( 'NONE', #358 ) ;
#95 = ADVANCED_FACE ( 'NONE', ( #85, #328 ), #114, .F. ) ;
#96 = DIRECTION ( 'NONE',  ( 1.000000000000000000, 0.000000000000000000, -5.782411586589388010E-15 ) ) ;
#97 = CC_DESIGN_PERSON_AND_ORGANIZATION_ASSIGNMENT ( #329, #241, ( #291 ) ) ;
#98 = EDGE_LOOP ( 'NONE', ( #223 ) ) ;
#99 = CONICAL_SURFACE ( 'NONE', #309, 0.5751923788646665647, 1.047197551196608067 ) ;
#100 = CYLINDRICAL_SURFACE ( 'NONE', #246, 0.5751923788646665647 ) ;
#101 = DIRECTION ( 'NONE',  ( 1.000000000000000000, 0.000000000000000000, -3.388131789017201356E-15 ) ) ;
#102 = EDGE_LOOP ( 'NONE', ( #112 ) ) ;
#103 = FACE_OUTER_BOUND ( 'NONE', #239, .T. ) ;
#104 = CARTESIAN_POINT ( 'NONE',  ( 1.396224740585994574E-33, 0.000000000000000000, 3.998946593392417487E-19 ) ) ;
#105 = ADVANCED_FACE ( 'NONE', ( #338, #330 ), #24, .T. ) ;
#106 = DIRECTION ( 'NONE',  ( 3.491481338843133355E-15, -0.000000000000000000, 1.000000000000000000 ) ) ;
#107 = DIRECTION ( 'NONE',  ( 1.000000000000000000, 0.000000000000000000, 0.000000000000000000 ) ) ;
#108 = DIRECTION ( 'NONE',  ( 3.491481338843133355E-15, -0.000000000000000000, 1.000000000000000000 ) ) ;
#109 = EDGE_LOOP ( 'NONE', ( #266 ) ) ;
#110 = CARTESIAN_POINT ( 'NONE',  ( 1.780655482809997696E-14, 0.000000000000000000, 5.099999999999999645 ) ) ;
#111 = LOCAL_TIME ( 10, 29, 51.00000000000000000, #93 ) ;
#112 = ORIENTED_EDGE ( 'NONE', *, *, #123, .T. ) ;
#113 = COORDINATED_UNIVERSAL_TIME_OFFSET ( 1, 0, .AHEAD. ) ;
#114 = PLANE ( 'NONE',  #374 ) ;
#115 = PERSON_AND_ORGANIZATION ( #133, #315 ) ;
#116 = ORIENTED_EDGE ( 'NONE', *, *, #243, .T. ) ;
#117 = PRODUCT_DEFINITION_SHAPE ( 'NONE', 'NONE',  #37 ) ;
#118 = LOCAL_TIME ( 10, 29, 51.00000000000000000, #113 ) ;
#119 = ORIENTED_EDGE ( 'NONE', *, *, #170, .F. ) ;
#120 = DIRECTION ( 'NONE',  ( 1.000000000000000000, 0.000000000000000000, 0.000000000000000000 ) ) ;
#121 = FACE_OUTER_BOUND ( 'NONE', #295, .T. ) ;
#122 = APPROVAL_DATE_TIME ( #269, #45 ) ;
#123 = EDGE_CURVE ( 'NONE', #290, #290, #26, .T. ) ;
#124 = AXIS2_PLACEMENT_3D ( 'NONE', #233, #84, #200 ) ;
#125 = FACE_OUTER_BOUND ( 'NONE', #251, .T. ) ;
#126 = CC_DESIGN_DATE_AND_TIME_ASSIGNMENT ( #64, #370, ( #392 ) ) ;
#127 = PERSON_AND_ORGANIZATION ( #133, #315 ) ;
#128 = CONICAL_SURFACE ( 'NONE', #324, 0.8349999999999999645, 1.047197551196608289 ) ;
#129 = CARTESIAN_POINT ( 'NONE',  ( 1.326762908760390423E-13, 0.000000000000000000, 38.00000000000000000 ) ) ;
#130 = ADVANCED_FACE ( 'NONE', ( #350, #171 ), #212, .T. ) ;
#131 = CYLINDRICAL_SURFACE ( 'NONE', #386, 1.499999999999998224 ) ;
#132 = CARTESIAN_POINT ( 'NONE',  ( 0.5751923788646695623, 0.000000000000000000, 0.8437499999999952260 ) ) ;
#133 = PERSON ( 'UNSPECIFIED', 'UNSPECIFIED', 'UNSPECIFIED', ('UNSPECIFIED'), ('UNSPECIFIED'), ('UNSPECIFIED') ) ;
#134 = ORIENTED_EDGE ( 'NONE', *, *, #9, .T. ) ;
#135 = AXIS2_PLACEMENT_3D ( 'NONE', #110, #231, #174 ) ;
#136 = CARTESIAN_POINT ( 'NONE',  ( 3.142333204958813314E-15, 0.000000000000000000, 0.8999999999999980238 ) ) ;
#137 = CYLINDRICAL_SURFACE ( 'NONE', #250, 0.5751923788646665647 ) ;
#138 = CARTESIAN_POINT ( 'NONE',  ( 1.767562427789335472E-15, 0.000000000000000000, 0.5062499999999997558 ) ) ;
#139 = CARTESIAN_POINT ( 'NONE',  ( 1.780655482809998011E-14, 0.000000000000000000, 5.100000000000000533 ) ) ;
#140 = DIRECTION ( 'NONE',  ( 1.000000000000000000, 0.000000000000000000, -3.491481338843133355E-15 ) ) ;
#141 = ORIENTED_EDGE ( 'NONE', *, *, #170, .T. ) ;
#142 = APPROVAL_ROLE ( '' ) ;
#143 = EDGE_LOOP ( 'NONE', ( #141 ) ) ;
#144 = CARTESIAN_POINT ( 'NONE',  ( 0.4777645209389173586, 0.000000000000000000, -1.668105909219559543E-15 ) ) ;
#145 = FACE_OUTER_BOUND ( 'NONE', #184, .T. ) ;
#146 = ORIENTED_EDGE ( 'NONE', *, *, #243, .F. ) ;
#147 = CARTESIAN_POINT ( 'NONE',  ( 0.8350000000000021849, 0.000000000000000000, 0.6937499999999969802 ) ) ;
#148 = LOCAL_TIME ( 10, 29, 51.00000000000000000, #362 ) ;
#149 = ORIENTED_EDGE ( 'NONE', *, *, #157, .T. ) ;
#150 = EDGE_CURVE ( 'NONE', #167, #167, #366, .T. ) ;
#151 = APPROVAL_ROLE ( '' ) ;
#152 = DIRECTION ( 'NONE',  ( 1.000000000000000000, 0.000000000000000000, 0.000000000000000000 ) ) ;
#153 = DIRECTION ( 'NONE',  ( 3.491481338843133355E-15, -0.000000000000000000, 1.000000000000000000 ) ) ;
#154 = ADVANCED_FACE ( 'NONE', ( #292, #81 ), #16, .T. ) ;
#155 = AXIS2_PLACEMENT_3D ( 'NONE', #263, #59, #152 ) ;
#156 = APPLICATION_CONTEXT ( 'configuration controlled 3d designs of mechanical parts and assemblies' ) ;
#157 = EDGE_CURVE ( 'NONE', #327, #327, #69, .T. ) ;
#158 = FACE_OUTER_BOUND ( 'NONE', #209, .T. ) ;
#159 = ADVANCED_BREP_SHAPE_REPRESENTATION ( '960456', ( #270, #326 ), #206 ) ;
#160 = ADVANCED_FACE ( 'NONE', ( #360, #375 ), #128, .T. ) ;
#161 = CALENDAR_DATE ( 2023, 27, 9 ) ;
#162 = ORIENTED_EDGE ( 'NONE', *, *, #150, .F. ) ;
#163 = ADVANCED_FACE ( 'NONE', ( #15, #319 ), #100, .T. ) ;
#164 = DIRECTION ( 'NONE',  ( 1.000000000000000000, 0.000000000000000000, -3.581382861484573220E-15 ) ) ;
#165 = EDGE_LOOP ( 'NONE', ( #388 ) ) ;
#166 = FACE_OUTER_BOUND ( 'NONE', #361, .T. ) ;
#167 = VERTEX_POINT ( 'NONE', #354 ) ;
#168 = DIRECTION ( 'NONE',  ( 1.000000000000000000, 0.000000000000000000, -4.625929269271496366E-15 ) ) ;
#169 = CARTESIAN_POINT ( 'NONE',  ( 7.201180261363896478E-16, 0.000000000000000000, 0.2062499999999981015 ) ) ;
#170 = EDGE_CURVE ( 'NONE', #83, #83, #7, .T. ) ;
#171 = FACE_OUTER_BOUND ( 'NONE', #183, .T. ) ;
#172 = CC_DESIGN_APPROVAL ( #226, ( #298 ) ) ;
#173 = DIRECTION ( 'NONE',  ( 3.491481338843133355E-15, -0.000000000000000000, 1.000000000000000000 ) ) ;
#174 = DIRECTION ( 'NONE',  ( 1.000000000000000000, 0.000000000000000000, -3.491481338843132961E-15 ) ) ;
#175 = EDGE_LOOP ( 'NONE', ( #68 ) ) ;
#176 = APPROVAL_STATUS ( 'not_yet_approved' ) ;
#177 = ORIENTED_EDGE ( 'NONE', *, *, #9, .F. ) ;
#178 = EDGE_CURVE ( 'NONE', #371, #371, #29, .T. ) ;
#179 = PERSON_AND_ORGANIZATION ( #133, #315 ) ;
#180 = AXIS2_PLACEMENT_3D ( 'NONE', #82, #234, #57 ) ;
#181 = CARTESIAN_POINT ( 'NONE',  ( 3.142333204958820020E-15, 0.5751923788646665647, 0.9000000000000000222 ) ) ;
#182 = CARTESIAN_POINT ( 'NONE',  ( 0.5751923788646683411, 0.000000000000000000, 0.5062499999999976463 ) ) ;
#183 = EDGE_LOOP ( 'NONE', ( #297 ) ) ;
#184 = EDGE_LOOP ( 'NONE', ( #363 ) ) ;
#185 = DIRECTION ( 'NONE',  ( 0.000000000000000000, 0.000000000000000000, 1.000000000000000000 ) ) ;
#186 = APPROVAL_PERSON_ORGANIZATION ( #307, #45, #151 ) ;
#187 = UNCERTAINTY_MEASURE_WITH_UNIT (LENGTH_MEASURE( 1.000000000000000082E-05 ), #302, 'distance_accuracy_value', 'NONE');
#188 = ADVANCED_FACE ( 'NONE', ( #42, #67 ), #342, .T. ) ;
#189 = DIRECTION ( 'NONE',  ( 3.491481338843133355E-15, -0.000000000000000000, 1.000000000000000000 ) ) ;
#190 = APPROVAL_STATUS ( 'not_yet_approved' ) ;
#191 = DIRECTION ( 'NONE',  ( 1.000000000000000000, 0.000000000000000000, -3.374461439006786007E-15 ) ) ;
#192 = DIRECTION ( 'NONE',  ( -3.491481338843133355E-15, 0.000000000000000000, -1.000000000000000000 ) ) ;
#193 = DIRECTION ( 'NONE',  ( 1.000000000000000000, 0.000000000000000000, -3.374461439006786007E-15 ) ) ;
#194 = CARTESIAN_POINT ( 'NONE',  ( 1.316288464743861212E-13, 0.000000000000000000, 37.69999999999999574 ) ) ;
#195 = CARTESIAN_POINT ( 'NONE',  ( 2.422215178822423765E-15, 0.000000000000000000, 0.6937499999999998668 ) ) ;
#196 = DIRECTION ( 'NONE',  ( 3.491481338843133355E-15, -0.000000000000000000, 1.000000000000000000 ) ) ;
#197 = CARTESIAN_POINT ( 'NONE',  ( 3.142333204958813314E-15, 0.000000000000000000, 0.8999999999999980238 ) ) ;
#198 = DIRECTION ( 'NONE',  ( 3.491481338843133355E-15, -0.000000000000000000, 1.000000000000000000 ) ) ;
#199 = PERSON_AND_ORGANIZATION ( #133, #315 ) ;
#200 = DIRECTION ( 'NONE',  ( 1.000000000000000000, 0.000000000000000000, -3.581382861484573220E-15 ) ) ;
#201 = DIRECTION ( 'NONE',  ( -3.491481338843133355E-15, 0.000000000000000000, -1.000000000000000000 ) ) ;
#202 = CALENDAR_DATE ( 2023, 27, 9 ) ;
#203 = CARTESIAN_POINT ( 'NONE',  ( 3.155721053188481805E-14, 0.000000000000000000, 9.038344321307752338 ) ) ;
#204 = CIRCLE ( 'NONE', #286, 0.4799999999999995381 ) ;
#205 = CALENDAR_DATE ( 2023, 27, 9 ) ;
#206 =( GEOMETRIC_REPRESENTATION_CONTEXT ( 3 ) GLOBAL_UNCERTAINTY_ASSIGNED_CONTEXT ( ( #187 ) ) GLOBAL_UNIT_ASSIGNED_CONTEXT ( ( #302, #296, #90 ) ) REPRESENTATION_CONTEXT ( 'NONE', 'WORKASPACE' ) );
#207 = EDGE_LOOP ( 'NONE', ( #177 ) ) ;
#208 = ADVANCED_FACE ( 'NONE', ( #347, #293 ), #99, .T. ) ;
#209 = EDGE_LOOP ( 'NONE', ( #280 ) ) ;
#210 = CARTESIAN_POINT ( 'NONE',  ( 0.5140741737109481013, 0.000000000000000000, 5.358819045102510614 ) ) ;
#211 = PRODUCT_RELATED_PRODUCT_CATEGORY ( 'detail', '', ( #291 ) ) ;
#212 = CONICAL_SURFACE ( 'NONE', #259, 1.499999999999996447, 0.7853981633974501664 ) ;
#213 = AXIS2_PLACEMENT_3D ( 'NONE', #76, #289, #50 ) ;
#214 = EDGE_CURVE ( 'NONE', #282, #282, #306, .T. ) ;
#215 = AXIS2_PLACEMENT_3D ( 'NONE', #228, #47, #313 ) ;
#216 = CARTESIAN_POINT ( 'NONE',  ( 1.200000000000126299, 0.000000000000000000, 37.99999999999999289 ) ) ;
#217 = CC_DESIGN_APPROVAL ( #380, ( #392 ) ) ;
#218 = ADVANCED_FACE ( 'NONE', ( #166, #281 ), #131, .T. ) ;
#219 = DIRECTION ( 'NONE',  ( 1.000000000000000000, 0.000000000000000000, -3.487135944077084845E-15 ) ) ;
#220 = EDGE_LOOP ( 'NONE', ( #346 ) ) ;
#221 = CARTESIAN_POINT ( 'NONE',  ( 1.326762908760390423E-13, 0.000000000000000000, 38.00000000000000000 ) ) ;
#222 = ADVANCED_FACE ( 'NONE', ( #103 ), #352, .F. ) ;
#223 = ORIENTED_EDGE ( 'NONE', *, *, #312, .F. ) ;
#224 = TOROIDAL_SURFACE ( 'NONE', #135, 1.479999999999999538, 1.000000000000000000 ) ;
#225 = VERTEX_POINT ( 'NONE', #264 ) ;
#226 = APPROVAL ( #176, 'UNSPECIFIED' ) ;
#227 = DIRECTION ( 'NONE',  ( 1.000000000000000000, 0.000000000000000000, -3.505803431989056433E-15 ) ) ;
#228 = CARTESIAN_POINT ( 'NONE',  ( 2.422215178822423765E-15, 0.000000000000000000, 0.6937499999999998668 ) ) ;
#229 = EDGE_LOOP ( 'NONE', ( #325 ) ) ;
#230 = CIRCLE ( 'NONE', #62, 0.4799999999999999822 ) ;
#231 = DIRECTION ( 'NONE',  ( 3.491481338843133355E-15, -0.000000000000000000, 1.000000000000000000 ) ) ;
#232 = DATE_AND_TIME ( #205, #288 ) ;
#233 = CARTESIAN_POINT ( 'NONE',  ( 2.945937379648884302E-15, 0.000000000000000000, 0.8437499999999973355 ) ) ;
#234 = DIRECTION ( 'NONE',  ( 3.491481338843133355E-15, -0.000000000000000000, 1.000000000000000000 ) ) ;
#235 = PERSON_AND_ORGANIZATION_ROLE ( 'design_supplier' ) ;
#236 = EDGE_LOOP ( 'NONE', ( #149 ) ) ;
#237 = CIRCLE ( 'NONE', #63, 0.4777645209389173586 ) ;
#238 = VERTEX_POINT ( 'NONE', #92 ) ;
#239 = EDGE_LOOP ( 'NONE', ( #22 ) ) ;
#240 = CC_DESIGN_PERSON_AND_ORGANIZATION_ASSIGNMENT ( #179, #23, ( #298 ) ) ;
#241 = PERSON_AND_ORGANIZATION_ROLE ( 'design_owner' ) ;
#242 = PERSON_AND_ORGANIZATION ( #133, #315 ) ;
#243 = EDGE_CURVE ( 'NONE', #225, #225, #204, .T. ) ;
#244 = CALENDAR_DATE ( 2023, 27, 9 ) ;
#245 = FACE_OUTER_BOUND ( 'NONE', #54, .T. ) ;
#246 = AXIS2_PLACEMENT_3D ( 'NONE', #221, #348, #73 ) ;
#247 = APPLICATION_CONTEXT ( 'configuration controlled 3d designs of mechanical parts and assemblies' ) ;
#248 = DIRECTION ( 'NONE',  ( -1.000000000000000000, 0.000000000000000000, 3.505803431989056433E-15 ) ) ;
#249 = CARTESIAN_POINT ( 'NONE',  ( 1.500000000000127898, 0.000000000000000000, 37.69999999999998863 ) ) ;
#250 = AXIS2_PLACEMENT_3D ( 'NONE', #344, #294, #107 ) ;
#251 = EDGE_LOOP ( 'NONE', ( #41 ) ) ;
#252 = DIRECTION ( 'NONE',  ( 1.000000000000000000, 0.000000000000000000, -4.625929269271490844E-15 ) ) ;
#253 = FACE_BOUND ( 'NONE', #260, .T. ) ;
#254 = CARTESIAN_POINT ( 'NONE',  ( 8.510485763430169108E-16, 0.000000000000000000, 0.2437500000000009104 ) ) ;
#255 = CARTESIAN_POINT ( 'NONE',  ( 0.8350000000000007416, 0.000000000000000000, 0.2437499999999979960 ) ) ;
#256 = ORIENTED_EDGE ( 'NONE', *, *, #214, .F. ) ;
#257 = ADVANCED_FACE ( 'NONE', ( #121, #74 ), #137, .T. ) ;
#258 = CARTESIAN_POINT ( 'NONE',  ( 0.000000000000000000, 0.000000000000000000, 0.000000000000000000 ) ) ;
#259 = AXIS2_PLACEMENT_3D ( 'NONE', #194, #321, #285 ) ;
#260 = EDGE_LOOP ( 'NONE', ( #387 ) ) ;
#261 = CONICAL_SURFACE ( 'NONE', #39, 0.4777645209389173586, 1.047197551196603627 ) ;
#262 = CYLINDRICAL_SURFACE ( 'NONE', #180, 0.8349999999999999645 ) ;
#263 = CARTESIAN_POINT ( 'NONE',  ( 1.326762908760390423E-13, 0.000000000000000000, 38.00000000000000000 ) ) ;
#264 = CARTESIAN_POINT ( 'NONE',  ( 0.4800000000000173017, 0.000000000000000000, 5.099999999999998757 ) ) ;
#265 = ADVANCED_FACE ( 'NONE', ( #253, #381 ), #12, .T. ) ;
#266 = ORIENTED_EDGE ( 'NONE', *, *, #373, .F. ) ;
#267 = AXIS2_PLACEMENT_3D ( 'NONE', #61, #153, #367 ) ;
#268 = ORIENTED_EDGE ( 'NONE', *, *, #72, .T. ) ;
#269 = DATE_AND_TIME ( #299, #148 ) ;
#270 = MANIFOLD_SOLID_BREP ( 'Corps-Déplacer/Copier1', #345 ) ;
#271 = AXIS2_PLACEMENT_3D ( 'NONE', #318, #10, #168 ) ;
#272 = APPROVAL_PERSON_ORGANIZATION ( #36, #380, #340 ) ;
#273 = DESIGN_CONTEXT ( 'detailed design', #156, 'design' ) ;
#274 = CARTESIAN_POINT ( 'NONE',  ( 0.5751923788646697844, 0.000000000000000000, 0.8999999999999959144 ) ) ;
#275 = CC_DESIGN_PERSON_AND_ORGANIZATION_ASSIGNMENT ( #242, #88, ( #37 ) ) ;
#276 = APPROVAL_DATE_TIME ( #5, #380 ) ;
#277 = AXIS2_PLACEMENT_3D ( 'NONE', #13, #6, #219 ) ;
#278 = CIRCLE ( 'NONE', #48, 0.5140741737109293386 ) ;
#279 = EDGE_LOOP ( 'NONE', ( #268 ) ) ;
#280 = ORIENTED_EDGE ( 'NONE', *, *, #351, .F. ) ;
#281 = FACE_OUTER_BOUND ( 'NONE', #55, .T. ) ;
#282 = VERTEX_POINT ( 'NONE', #249 ) ;
#283 = CARTESIAN_POINT ( 'NONE',  ( 1.326762908760390423E-13, 0.000000000000000000, 38.00000000000000000 ) ) ;
#284 = FACE_BOUND ( 'NONE', #229, .T. ) ;
#285 = DIRECTION ( 'NONE',  ( -1.000000000000000000, 0.000000000000000000, 4.625929269271496366E-15 ) ) ;
#286 = AXIS2_PLACEMENT_3D ( 'NONE', #139, #27, #394 ) ;
#287 = AXIS2_PLACEMENT_3D ( 'NONE', #303, #198, #332 ) ;
#288 = LOCAL_TIME ( 10, 29, 51.00000000000000000, #86 ) ;
#289 = DIRECTION ( 'NONE',  ( -3.491481338843133355E-15, 0.000000000000000000, -1.000000000000000000 ) ) ;
#290 = VERTEX_POINT ( 'NONE', #255 ) ;
#291 = PRODUCT ( '960456', '960456', '', ( #395 ) ) ;
#292 = FACE_OUTER_BOUND ( 'NONE', #49, .T. ) ;
#293 = FACE_BOUND ( 'NONE', #25, .T. ) ;
#294 = DIRECTION ( 'NONE',  ( 3.491481338843133355E-15, -0.000000000000000000, 1.000000000000000000 ) ) ;
#295 = EDGE_LOOP ( 'NONE', ( #119 ) ) ;
#296 =( NAMED_UNIT ( * ) PLANE_ANGLE_UNIT ( ) SI_UNIT ( $, .RADIAN. ) );
#297 = ORIENTED_EDGE ( 'NONE', *, *, #214, .T. ) ;
#298 = PRODUCT_DEFINITION_FORMATION_WITH_SPECIFIED_SOURCE ( 'ANY', '', #291, .NOT_KNOWN. ) ;
#299 = CALENDAR_DATE ( 2023, 27, 9 ) ;
#300 = EDGE_CURVE ( 'NONE', #56, #56, #278, .T. ) ;
#301 = DIRECTION ( 'NONE',  ( 1.000000000000000000, 0.000000000000000000, -3.469446951953614189E-15 ) ) ;
#302 =( LENGTH_UNIT ( ) NAMED_UNIT ( * ) SI_UNIT ( .MILLI., .METRE. ) );
#303 = CARTESIAN_POINT ( 'NONE',  ( 2.291284628615796404E-15, 0.000000000000000000, 0.6562499999999971134 ) ) ;
#304 = APPLICATION_PROTOCOL_DEFINITION ( 'international standard', 'config_control_design', 1994, #247 ) ;
#305 = EDGE_LOOP ( 'NONE', ( #91 ) ) ;
#306 = CIRCLE ( 'NONE', #271, 1.499999999999996447 ) ;
#307 = PERSON_AND_ORGANIZATION ( #133, #315 ) ;
#308 = SECURITY_CLASSIFICATION_LEVEL ( 'unclassified' ) ;
#309 = AXIS2_PLACEMENT_3D ( 'NONE', #71, #322, #43 ) ;
#310 = EDGE_CURVE ( 'NONE', #337, #337, #237, .T. ) ;
#311 = FACE_OUTER_BOUND ( 'NONE', #390, .T. ) ;
#312 = EDGE_CURVE ( 'NONE', #238, #238, #230, .T. ) ;
#313 = DIRECTION ( 'NONE',  ( -1.000000000000000000, 0.000000000000000000, 3.505803431989056828E-15 ) ) ;
#314 = PERSON_AND_ORGANIZATION_ROLE ( 'classification_officer' ) ;
#315 = ORGANIZATION ( 'UNSPECIFIED', 'UNSPECIFIED', '' ) ;
#316 = AXIS2_PLACEMENT_3D ( 'NONE', #169, #35, #227 ) ;
#317 = ADVANCED_FACE ( 'NONE', ( #158, #284 ), #261, .T. ) ;
#318 = CARTESIAN_POINT ( 'NONE',  ( 1.316288464743861212E-13, 0.000000000000000000, 37.69999999999999574 ) ) ;
#319 = FACE_OUTER_BOUND ( 'NONE', #19, .T. ) ;
#320 = DIRECTION ( 'NONE',  ( 3.491481338843133355E-15, -0.000000000000000000, 1.000000000000000000 ) ) ;
#321 = DIRECTION ( 'NONE',  ( -3.491481338843133355E-15, 0.000000000000000000, -1.000000000000000000 ) ) ;
#322 = DIRECTION ( 'NONE',  ( 3.491481338843133355E-15, -0.000000000000000000, 1.000000000000000000 ) ) ;
#323 = CARTESIAN_POINT ( 'NONE',  ( 1.500000000000031752, 0.000000000000000000, 9.038344321307747009 ) ) ;
#324 = AXIS2_PLACEMENT_3D ( 'NONE', #254, #192, #248 ) ;
#325 = ORIENTED_EDGE ( 'NONE', *, *, #310, .T. ) ;
#326 = AXIS2_PLACEMENT_3D ( 'NONE', #339, #185, #120 ) ;
#327 = VERTEX_POINT ( 'NONE', #132 ) ;
#328 = FACE_OUTER_BOUND ( 'NONE', #143, .T. ) ;
#329 = PERSON_AND_ORGANIZATION ( #133, #315 ) ;
#330 = FACE_OUTER_BOUND ( 'NONE', #279, .T. ) ;
#331 = APPROVAL_DATE_TIME ( #389, #226 ) ;
#332 = DIRECTION ( 'NONE',  ( 1.000000000000000000, 0.000000000000000000, -3.505803431989056828E-15 ) ) ;
#333 = CIRCLE ( 'NONE', #287, 0.8349999999999998535 ) ;
#334 = ADVANCED_FACE ( 'NONE', ( #125 ), #383, .F. ) ;
#335 = VERTEX_POINT ( 'NONE', #147 ) ;
#336 = FACE_OUTER_BOUND ( 'NONE', #220, .T. ) ;
#337 = VERTEX_POINT ( 'NONE', #144 ) ;
#338 = FACE_OUTER_BOUND ( 'NONE', #109, .T. ) ;
#339 = CARTESIAN_POINT ( 'NONE',  ( 0.000000000000000000, 0.000000000000000000, 0.000000000000000000 ) ) ;
#340 = APPROVAL_ROLE ( '' ) ;
#341 = LOCAL_TIME ( 10, 29, 51.00000000000000000, #368 ) ;
#342 = CONICAL_SURFACE ( 'NONE', #356, 0.5140741737109293386, 0.2617993877991426355 ) ;
#343 = AXIS2_PLACEMENT_3D ( 'NONE', #195, #78, #44 ) ;
#344 = CARTESIAN_POINT ( 'NONE',  ( 1.326762908760390423E-13, 0.000000000000000000, 38.00000000000000000 ) ) ;
#345 = CLOSED_SHELL ( 'NONE', ( #334, #317, #1, #160, #163, #208, #105, #265, #257, #95, #154, #384, #188, #218, #130, #222 ) ) ;
#346 = ORIENTED_EDGE ( 'NONE', *, *, #123, .F. ) ;
#347 = FACE_OUTER_BOUND ( 'NONE', #75, .T. ) ;
#348 = DIRECTION ( 'NONE',  ( 3.491481338843133355E-15, -0.000000000000000000, 1.000000000000000000 ) ) ;
#349 = DIRECTION ( 'NONE',  ( 1.000000000000000000, 0.000000000000000000, -3.491481338843133750E-15 ) ) ;
#350 = FACE_BOUND ( 'NONE', #87, .T. ) ;
#351 = EDGE_CURVE ( 'NONE', #393, #393, #80, .T. ) ;
#352 = PLANE ( 'NONE',  #213 ) ;
#353 = DIRECTION ( 'NONE',  ( 3.491481338843133355E-15, -0.000000000000000000, 1.000000000000000000 ) ) ;
#354 = CARTESIAN_POINT ( 'NONE',  ( 0.5751923788646680080, 0.000000000000000000, 0.3937499999999962697 ) ) ;
#355 = EDGE_CURVE ( 'NONE', #58, #58, #30, .T. ) ;
#356 = AXIS2_PLACEMENT_3D ( 'NONE', #378, #196, #191 ) ;
#357 = ORIENTED_EDGE ( 'NONE', *, *, #300, .F. ) ;
#358 = CARTESIAN_POINT ( 'NONE',  ( 0.8350000000000020739, 0.000000000000000000, 0.6562499999999942268 ) ) ;
#359 = DIRECTION ( 'NONE',  ( 3.491481338843133355E-15, -0.000000000000000000, 1.000000000000000000 ) ) ;
#360 = FACE_BOUND ( 'NONE', #38, .T. ) ;
#361 = EDGE_LOOP ( 'NONE', ( #256 ) ) ;
#362 = COORDINATED_UNIVERSAL_TIME_OFFSET ( 1, 0, .AHEAD. ) ;
#363 = ORIENTED_EDGE ( 'NONE', *, *, #351, .T. ) ;
#364 = ORIENTED_EDGE ( 'NONE', *, *, #355, .T. ) ;
#365 = DATE_TIME_ROLE ( 'creation_date' ) ;
#366 = CIRCLE ( 'NONE', #277, 0.5751923788646665647 ) ;
#367 = DIRECTION ( 'NONE',  ( 1.000000000000000000, 0.000000000000000000, -3.505803431989056433E-15 ) ) ;
#368 = COORDINATED_UNIVERSAL_TIME_OFFSET ( 1, 0, .AHEAD. ) ;
#369 = CC_DESIGN_PERSON_AND_ORGANIZATION_ASSIGNMENT ( #115, #235, ( #298 ) ) ;
#370 = DATE_TIME_ROLE ( 'classification_date' ) ;
#371 = VERTEX_POINT ( 'NONE', #216 ) ;
#372 = CC_DESIGN_SECURITY_CLASSIFICATION ( #392, ( #298 ) ) ;
#373 = EDGE_CURVE ( 'NONE', #335, #335, #3, .T. ) ;
#374 = AXIS2_PLACEMENT_3D ( 'NONE', #181, #201, #52 ) ;
#375 = FACE_OUTER_BOUND ( 'NONE', #102, .T. ) ;
#376 = AXIS2_PLACEMENT_3D ( 'NONE', #138, #353, #77 ) ;
#377 = EDGE_LOOP ( 'NONE', ( #382 ) ) ;
#378 = CARTESIAN_POINT ( 'NONE',  ( 1.871021669421260278E-14, 0.000000000000000000, 5.358819045102512391 ) ) ;
#379 = DIRECTION ( 'NONE',  ( 3.491481338843133355E-15, -0.000000000000000000, 1.000000000000000000 ) ) ;
#380 = APPROVAL ( #190, 'UNSPECIFIED' ) ;
#381 = FACE_OUTER_BOUND ( 'NONE', #175, .T. ) ;
#382 = ORIENTED_EDGE ( 'NONE', *, *, #312, .T. ) ;
#383 = PLANE ( 'NONE',  #40 ) ;
#384 = ADVANCED_FACE ( 'NONE', ( #245, #311 ), #224, .F. ) ;
#385 = DIRECTION ( 'NONE',  ( 1.000000000000000000, 0.000000000000000000, 0.000000000000000000 ) ) ;
#386 = AXIS2_PLACEMENT_3D ( 'NONE', #283, #173, #252 ) ;
#387 = ORIENTED_EDGE ( 'NONE', *, *, #157, .F. ) ;
#388 = ORIENTED_EDGE ( 'NONE', *, *, #355, .F. ) ;
#389 = DATE_AND_TIME ( #202, #118 ) ;
#390 = EDGE_LOOP ( 'NONE', ( #116 ) ) ;
#391 = ORIENTED_EDGE ( 'NONE', *, *, #178, .F. ) ;
#392 = SECURITY_CLASSIFICATION ( '', '', #308 ) ;
#393 = VERTEX_POINT ( 'NONE', #53 ) ;
#394 = DIRECTION ( 'NONE',  ( 1.000000000000000000, 0.000000000000000000, -3.614007241618351532E-15 ) ) ;
#395 = MECHANICAL_CONTEXT ( 'NONE', #247, 'mechanical' ) ;
ENDSEC;
END-ISO-10303-21;
