ISO-10303-21;
HEADER;
FILE_DESCRIPTION (( 'STEP AP203' ),
    '1' );
FILE_NAME ('960455.step',
    '2023-09-27T08:29:50',
    ( '' ),
    ( '' ),
    'SwSTEP 2.0',
    'SolidWorks 2022',
    '' );
FILE_SCHEMA (( 'CONFIG_CONTROL_DESIGN' ));
ENDSEC;

DATA;
#1 = SECURITY_CLASSIFICATION_LEVEL ( 'unclassified' ) ;
#2 = AXIS2_PLACEMENT_3D ( 'NONE', #206, #381, #300 ) ;
#3 = PERSON_AND_ORGANIZATION_ROLE ( 'design_supplier' ) ;
#4 = CC_DESIGN_PERSON_AND_ORGANIZATION_ASSIGNMENT ( #248, #306, ( #242 ) ) ;
#5 = CARTESIAN_POINT ( 'NONE',  ( 2.153080158953270565E-15, 0.000000000000000000, 0.6166666666666681396 ) ) ;
#6 = COORDINATED_UNIVERSAL_TIME_OFFSET ( 1, 0, .AHEAD. ) ;
#7 = FACE_OUTER_BOUND ( 'NONE', #28, .T. ) ;
#8 = PERSON_AND_ORGANIZATION_ROLE ( 'classification_officer' ) ;
#9 = CIRCLE ( 'NONE', #254, 0.5340598923241484108 ) ;
#10 = CARTESIAN_POINT ( 'NONE',  ( 2.618611004132352383E-15, 0.000000000000000000, 0.7500000000000006661 ) ) ;
#11 = FACE_OUTER_BOUND ( 'NONE', #184, .T. ) ;
#12 = AXIS2_PLACEMENT_3D ( 'NONE', #173, #293, #16 ) ;
#13 = DIRECTION ( 'NONE',  ( 1.000000000000000000, 0.000000000000000000, 0.000000000000000000 ) ) ;
#14 = CC_DESIGN_APPROVAL ( #227, ( #56 ) ) ;
#15 = AXIS2_PLACEMENT_3D ( 'NONE', #352, #199, #324 ) ;
#16 = DIRECTION ( 'NONE',  ( 1.000000000000000000, 0.000000000000000000, 0.000000000000000000 ) ) ;
#17 = CARTESIAN_POINT ( 'NONE',  ( 1.606081415867841343E-14, 0.000000000000000000, 4.599999999999999645 ) ) ;
#18 = FACE_OUTER_BOUND ( 'NONE', #30, .T. ) ;
#19 = DIRECTION ( 'NONE',  ( 3.491481338843133355E-15, -0.000000000000000000, 1.000000000000000000 ) ) ;
#20 = CARTESIAN_POINT ( 'NONE',  ( 1.606081415867841343E-14, 0.000000000000000000, 4.599999999999999645 ) ) ;
#21 = EDGE_LOOP ( 'NONE', ( #63 ) ) ;
#22 = AXIS2_PLACEMENT_3D ( 'NONE', #158, #372, #354 ) ;
#23 = EDGE_CURVE ( 'NONE', #267, #267, #93, .T. ) ;
#24 = AXIS2_PLACEMENT_3D ( 'NONE', #62, #310, #332 ) ;
#25 = LOCAL_TIME ( 10, 29, 50.00000000000000000, #159 ) ;
#26 = EDGE_LOOP ( 'NONE', ( #155 ) ) ;
#27 = ADVANCED_FACE ( 'NONE', ( #202, #7 ), #326, .T. ) ;
#28 = EDGE_LOOP ( 'NONE', ( #392 ) ) ;
#29 = DIRECTION ( 'NONE',  ( 0.000000000000000000, 0.000000000000000000, 1.000000000000000000 ) ) ;
#30 = EDGE_LOOP ( 'NONE', ( #59 ) ) ;
#31 = ADVANCED_FACE ( 'NONE', ( #226, #245 ), #258, .T. ) ;
#32 = CARTESIAN_POINT ( 'NONE',  ( 0.7650000000000006795, 0.000000000000000000, 0.1833333333333312665 ) ) ;
#33 = AXIS2_PLACEMENT_3D ( 'NONE', #272, #60, #120 ) ;
#34 = DIRECTION ( 'NONE',  ( 1.000000000000000000, 0.000000000000000000, -3.451192871279423381E-15 ) ) ;
#35 = ORIENTED_EDGE ( 'NONE', *, *, #228, .T. ) ;
#36 = FACE_OUTER_BOUND ( 'NONE', #53, .T. ) ;
#37 = UNCERTAINTY_MEASURE_WITH_UNIT (LENGTH_MEASURE( 1.000000000000000082E-05 ), #185, 'distance_accuracy_value', 'NONE');
#38 = DATE_AND_TIME ( #373, #95 ) ;
#39 = CIRCLE ( 'NONE', #231, 0.5340598923241484108 ) ;
#40 = DIRECTION ( 'NONE',  ( 1.000000000000000000, 0.000000000000000000, -3.451192871279423381E-15 ) ) ;
#41 = DIRECTION ( 'NONE',  ( 3.491481338843133355E-15, -0.000000000000000000, 1.000000000000000000 ) ) ;
#42 = FACE_OUTER_BOUND ( 'NONE', #337, .T. ) ;
#43 = CARTESIAN_POINT ( 'NONE',  ( 6.401049121212433174E-16, 0.000000000000000000, 0.1833333333333339588 ) ) ;
#44 = DIRECTION ( 'NONE',  ( -3.491481338843133355E-15, 0.000000000000000000, -1.000000000000000000 ) ) ;
#45 = AXIS2_PLACEMENT_3D ( 'NONE', #20, #298, #80 ) ;
#46 = FACE_OUTER_BOUND ( 'NONE', #388, .T. ) ;
#47 = DIRECTION ( 'NONE',  ( 1.000000000000000000, 0.000000000000000000, -3.460219699421823039E-15 ) ) ;
#48 = LOCAL_TIME ( 10, 29, 50.00000000000000000, #134 ) ;
#49 = DIRECTION ( 'NONE',  ( 3.491481338843133355E-15, -0.000000000000000000, 1.000000000000000000 ) ) ;
#50 = DIRECTION ( 'NONE',  ( 1.000000000000000000, 0.000000000000000000, 0.000000000000000000 ) ) ;
#51 = EDGE_LOOP ( 'NONE', ( #84 ) ) ;
#52 = PRODUCT_RELATED_PRODUCT_CATEGORY ( 'detail', '', ( #242 ) ) ;
#53 = EDGE_LOOP ( 'NONE', ( #121 ) ) ;
#54 = VERTEX_POINT ( 'NONE', #152 ) ;
#55 = EDGE_CURVE ( 'NONE', #275, #275, #344, .T. ) ;
#56 = PRODUCT_DEFINITION_FORMATION_WITH_SPECIFIED_SOURCE ( 'ANY', '', #242, .NOT_KNOWN. ) ;
#57 = EDGE_LOOP ( 'NONE', ( #35 ) ) ;
#58 = MECHANICAL_CONTEXT ( 'NONE', #343, 'mechanical' ) ;
#59 = ORIENTED_EDGE ( 'NONE', *, *, #99, .T. ) ;
#60 = DIRECTION ( 'NONE',  ( 3.491481338843133355E-15, -0.000000000000000000, 1.000000000000000000 ) ) ;
#61 = EDGE_LOOP ( 'NONE', ( #389 ) ) ;
#62 = CARTESIAN_POINT ( 'NONE',  ( 1.696447602479103295E-14, 0.000000000000000000, 4.858819045102512391 ) ) ;
#63 = ORIENTED_EDGE ( 'NONE', *, *, #23, .T. ) ;
#64 = AXIS2_PLACEMENT_3D ( 'NONE', #356, #41, #383 ) ;
#65 = CALENDAR_DATE ( 2023, 27, 9 ) ;
#66 = PERSON_AND_ORGANIZATION ( #225, #230 ) ;
#67 = PERSON_AND_ORGANIZATION ( #225, #230 ) ;
#68 = PLANE ( 'NONE',  #238 ) ;
#69 = APPROVAL_ROLE ( '' ) ;
#70 = FACE_OUTER_BOUND ( 'NONE', #51, .T. ) ;
#71 = AXIS2_PLACEMENT_3D ( 'NONE', #394, #125, #47 ) ;
#72 = CARTESIAN_POINT ( 'NONE',  ( 1.316288464743861212E-13, 0.000000000000000000, 37.69999999999999574 ) ) ;
#73 = DIRECTION ( 'NONE',  ( 1.000000000000000000, 0.000000000000000000, -3.451192871279423381E-15 ) ) ;
#74 = DIRECTION ( 'NONE',  ( 3.491481338843133355E-15, -0.000000000000000000, 1.000000000000000000 ) ) ;
#75 = DIRECTION ( 'NONE',  ( 1.000000000000000000, 0.000000000000000000, -3.507712910982514253E-15 ) ) ;
#76 = CARTESIAN_POINT ( 'NONE',  ( 1.326762908760390423E-13, 0.000000000000000000, 38.00000000000000000 ) ) ;
#77 = AXIS2_PLACEMENT_3D ( 'NONE', #209, #363, #83 ) ;
#78 = PLANE ( 'NONE',  #286 ) ;
#79 = AXIS2_PLACEMENT_3D ( 'NONE', #296, #264, #109 ) ;
#80 = DIRECTION ( 'NONE',  ( 1.000000000000000000, 0.000000000000000000, -3.690901012716615186E-15 ) ) ;
#81 = EDGE_LOOP ( 'NONE', ( #149 ) ) ;
#82 = CARTESIAN_POINT ( 'NONE',  ( 1.571166602479406657E-15, 0.000000000000000000, 0.4499999999999990119 ) ) ;
#83 = DIRECTION ( 'NONE',  ( -1.000000000000000000, 0.000000000000000000, 3.543144354527792031E-15 ) ) ;
#84 = ORIENTED_EDGE ( 'NONE', *, *, #55, .T. ) ;
#85 = ADVANCED_FACE ( 'NONE', ( #112, #18 ), #385, .T. ) ;
#86 = ORIENTED_EDGE ( 'NONE', *, *, #284, .T. ) ;
#87 = FACE_BOUND ( 'NONE', #21, .T. ) ;
#88 = CONICAL_SURFACE ( 'NONE', #316, 1.499999999999996447, 0.7853981633974501664 ) ;
#89 = EDGE_LOOP ( 'NONE', ( #119 ) ) ;
#90 = CARTESIAN_POINT ( 'NONE',  ( 0.4700000000000028044, 0.000000000000000000, 0.8000000000000004885 ) ) ;
#91 = CC_DESIGN_DATE_AND_TIME_ASSIGNMENT ( #278, #97, ( #111 ) ) ;
#92 = EDGE_LOOP ( 'NONE', ( #113 ) ) ;
#93 = CIRCLE ( 'NONE', #22, 0.4474573519457043513 ) ;
#94 = DESIGN_CONTEXT ( 'detailed design', #364, 'design' ) ;
#95 = LOCAL_TIME ( 10, 29, 50.00000000000000000, #376 ) ;
#96 = CONICAL_SURFACE ( 'NONE', #154, 0.5340598923241484108, 1.047197551196602960 ) ;
#97 = DATE_TIME_ROLE ( 'creation_date' ) ;
#98 = DATE_TIME_ROLE ( 'classification_date' ) ;
#99 = EDGE_CURVE ( 'NONE', #124, #124, #339, .T. ) ;
#100 = DIRECTION ( 'NONE',  ( 3.491481338843133355E-15, -0.000000000000000000, 1.000000000000000000 ) ) ;
#101 = CONICAL_SURFACE ( 'NONE', #33, 0.4474573519457043513, 1.047197551196598297 ) ;
#102 = APPROVAL_PERSON_ORGANIZATION ( #67, #180, #190 ) ;
#103 = AXIS2_PLACEMENT_3D ( 'NONE', #375, #328, #142 ) ;
#104 = AXIS2_PLACEMENT_3D ( 'NONE', #133, #265, #13 ) ;
#105 = FACE_OUTER_BOUND ( 'NONE', #92, .T. ) ;
#106 = CARTESIAN_POINT ( 'NONE',  ( 1.326762908760390423E-13, 1.199999999999993516, 38.00000000000000000 ) ) ;
#107 = DIRECTION ( 'NONE',  ( 3.491481338843133355E-15, -0.000000000000000000, 1.000000000000000000 ) ) ;
#108 = FACE_OUTER_BOUND ( 'NONE', #176, .T. ) ;
#109 = DIRECTION ( 'NONE',  ( 1.000000000000000000, 0.000000000000000000, 0.000000000000000000 ) ) ;
#110 = DIRECTION ( 'NONE',  ( 3.491481338843133355E-15, -0.000000000000000000, 1.000000000000000000 ) ) ;
#111 = PRODUCT_DEFINITION ( 'UNKNOWN', '', #56, #94 ) ;
#112 = FACE_OUTER_BOUND ( 'NONE', #26, .T. ) ;
#113 = ORIENTED_EDGE ( 'NONE', *, *, #99, .F. ) ;
#114 = AXIS2_PLACEMENT_3D ( 'NONE', #223, #44, #290 ) ;
#115 = FACE_OUTER_BOUND ( 'NONE', #181, .T. ) ;
#116 = EDGE_LOOP ( 'NONE', ( #210 ) ) ;
#117 = PRODUCT_DEFINITION_SHAPE ( 'NONE', 'NONE',  #111 ) ;
#118 = CARTESIAN_POINT ( 'NONE',  ( 0.7650000000000007905, 0.000000000000000000, 0.2166666666666609287 ) ) ;
#119 = ORIENTED_EDGE ( 'NONE', *, *, #299, .F. ) ;
#120 = DIRECTION ( 'NONE',  ( 1.000000000000000000, 0.000000000000000000, -3.491481338843133750E-15 ) ) ;
#121 = ORIENTED_EDGE ( 'NONE', *, *, #198, .F. ) ;
#122 = CARTESIAN_POINT ( 'NONE',  ( 0.4474573519457043513, 0.000000000000000000, -1.562288994246591070E-15 ) ) ;
#123 = EDGE_LOOP ( 'NONE', ( #147 ) ) ;
#124 = VERTEX_POINT ( 'NONE', #277 ) ;
#125 = DIRECTION ( 'NONE',  ( 3.491481338843133355E-15, -0.000000000000000000, 1.000000000000000000 ) ) ;
#126 = VERTEX_POINT ( 'NONE', #368 ) ;
#127 = APPROVAL_ROLE ( '' ) ;
#128 = AXIS2_PLACEMENT_3D ( 'NONE', #219, #29, #338 ) ;
#129 = CIRCLE ( 'NONE', #250, 0.7650000000000000133 ) ;
#130 = CALENDAR_DATE ( 2023, 27, 9 ) ;
#131 = ADVANCED_FACE ( 'NONE', ( #42, #70 ), #345, .F. ) ;
#132 = DATE_AND_TIME ( #130, #281 ) ;
#133 = CARTESIAN_POINT ( 'NONE',  ( 1.326762908760390423E-13, 0.000000000000000000, 38.00000000000000000 ) ) ;
#134 = COORDINATED_UNIVERSAL_TIME_OFFSET ( 1, 0, .AHEAD. ) ;
#135 = CIRCLE ( 'NONE', #189, 0.7650000000000000133 ) ;
#136 = SHAPE_DEFINITION_REPRESENTATION ( #117, #232 ) ;
#137 = DIRECTION ( 'NONE',  ( 3.491481338843133355E-15, -0.000000000000000000, 1.000000000000000000 ) ) ;
#138 = FACE_OUTER_BOUND ( 'NONE', #361, .T. ) ;
#139 = DIRECTION ( 'NONE',  ( 1.000000000000000000, 0.000000000000000000, -3.451192871279423381E-15 ) ) ;
#140 = ADVANCED_FACE ( 'NONE', ( #138 ), #196, .F. ) ;
#141 = DIRECTION ( 'NONE',  ( 1.000000000000000000, 0.000000000000000000, -3.491481338843133355E-15 ) ) ;
#142 = DIRECTION ( 'NONE',  ( 1.000000000000000000, 0.000000000000000000, 0.000000000000000000 ) ) ;
#143 = CARTESIAN_POINT ( 'NONE',  ( 1.571166602479406657E-15, 0.000000000000000000, 0.4499999999999990119 ) ) ;
#144 = CC_DESIGN_PERSON_AND_ORGANIZATION_ASSIGNMENT ( #285, #3, ( #56 ) ) ;
#145 = CARTESIAN_POINT ( 'NONE',  ( 1.222018468595107324E-15, 0.000000000000000000, 0.3500000000000030864 ) ) ;
#146 = DIRECTION ( 'NONE',  ( -3.491481338843133355E-15, 0.000000000000000000, -1.000000000000000000 ) ) ;
#147 = ORIENTED_EDGE ( 'NONE', *, *, #284, .F. ) ;
#148 = APPLICATION_PROTOCOL_DEFINITION ( 'international standard', 'config_control_design', 1994, #343 ) ;
#149 = ORIENTED_EDGE ( 'NONE', *, *, #322, .F. ) ;
#150 = VERTEX_POINT ( 'NONE', #216 ) ;
#151 = EDGE_LOOP ( 'NONE', ( #359 ) ) ;
#152 = CARTESIAN_POINT ( 'NONE',  ( 1.200000000000126299, 0.000000000000000000, 37.99999999999999289 ) ) ;
#153 = ORIENTED_EDGE ( 'NONE', *, *, #311, .T. ) ;
#154 = AXIS2_PLACEMENT_3D ( 'NONE', #82, #384, #139 ) ;
#155 = ORIENTED_EDGE ( 'NONE', *, *, #311, .F. ) ;
#156 = CARTESIAN_POINT ( 'NONE',  ( 0.5340598923241496321, 0.000000000000000000, 0.3500000000000012546 ) ) ;
#157 = DATE_AND_TIME ( #349, #25 ) ;
#158 = CARTESIAN_POINT ( 'NONE',  ( 0.000000000000000000, 0.000000000000000000, 0.000000000000000000 ) ) ;
#159 = COORDINATED_UNIVERSAL_TIME_OFFSET ( 1, 0, .AHEAD. ) ;
#160 = CIRCLE ( 'NONE', #24, 0.5040741737109293297 ) ;
#161 = CIRCLE ( 'NONE', #378, 1.199999999999993516 ) ;
#162 = CARTESIAN_POINT ( 'NONE',  ( 1.316288464743861212E-13, 0.000000000000000000, 37.69999999999999574 ) ) ;
#163 = CC_DESIGN_PERSON_AND_ORGANIZATION_ASSIGNMENT ( #66, #259, ( #111 ) ) ;
#164 = PERSON_AND_ORGANIZATION ( #225, #230 ) ;
#165 = AXIS2_PLACEMENT_3D ( 'NONE', #43, #355, #75 ) ;
#166 = ADVANCED_FACE ( 'NONE', ( #169, #350 ), #88, .T. ) ;
#167 = CARTESIAN_POINT ( 'NONE',  ( 1.326762908760390423E-13, 0.000000000000000000, 38.00000000000000000 ) ) ;
#168 = CC_DESIGN_PERSON_AND_ORGANIZATION_ASSIGNMENT ( #164, #346, ( #56 ) ) ;
#169 = FACE_BOUND ( 'NONE', #81, .T. ) ;
#170 = FACE_OUTER_BOUND ( 'NONE', #276, .T. ) ;
#171 = FACE_BOUND ( 'NONE', #309, .T. ) ;
#172 = FACE_OUTER_BOUND ( 'NONE', #367, .T. ) ;
#173 = CARTESIAN_POINT ( 'NONE',  ( 1.326762908760390423E-13, 0.000000000000000000, 38.00000000000000000 ) ) ;
#174 = CYLINDRICAL_SURFACE ( 'NONE', #79, 0.7650000000000000133 ) ;
#175 = DIRECTION ( 'NONE',  ( 3.491481338843133355E-15, -0.000000000000000000, 1.000000000000000000 ) ) ;
#176 = EDGE_LOOP ( 'NONE', ( #177 ) ) ;
#177 = ORIENTED_EDGE ( 'NONE', *, *, #299, .T. ) ;
#178 = VERTEX_POINT ( 'NONE', #252 ) ;
#179 = CONICAL_SURFACE ( 'NONE', #15, 0.5040741737109293297, 0.2617993877991426910 ) ;
#180 = APPROVAL ( #192, 'UNSPECIFIED' ) ;
#181 = EDGE_LOOP ( 'NONE', ( #271 ) ) ;
#182 = CARTESIAN_POINT ( 'NONE',  ( 0.5340598923241499651, 0.000000000000000000, 0.4499999999999971800 ) ) ;
#183 = EDGE_CURVE ( 'NONE', #395, #395, #380, .T. ) ;
#184 = EDGE_LOOP ( 'NONE', ( #86 ) ) ;
#185 =( LENGTH_UNIT ( ) NAMED_UNIT ( * ) SI_UNIT ( .MILLI., .METRE. ) );
#186 = ORIENTED_EDGE ( 'NONE', *, *, #313, .T. ) ;
#187 = CARTESIAN_POINT ( 'NONE',  ( 0.7650000000000021227, 0.000000000000000000, 0.5833333333333288184 ) ) ;
#188 =( GEOMETRIC_REPRESENTATION_CONTEXT ( 3 ) GLOBAL_UNCERTAINTY_ASSIGNED_CONTEXT ( ( #37 ) ) GLOBAL_UNIT_ASSIGNED_CONTEXT ( ( #185, #211, #244 ) ) REPRESENTATION_CONTEXT ( 'NONE', 'WORKASPACE' ) );
#189 = AXIS2_PLACEMENT_3D ( 'NONE', #5, #100, #297 ) ;
#190 = APPROVAL_ROLE ( '' ) ;
#191 = APPLICATION_PROTOCOL_DEFINITION ( 'international standard', 'config_control_design', 1994, #364 ) ;
#192 = APPROVAL_STATUS ( 'not_yet_approved' ) ;
#193 = DIRECTION ( 'NONE',  ( 3.491481338843133355E-15, -0.000000000000000000, 1.000000000000000000 ) ) ;
#194 = ADVANCED_FACE ( 'NONE', ( #105, #171 ), #179, .T. ) ;
#195 = APPROVAL_DATE_TIME ( #157, #224 ) ;
#196 = PLANE ( 'NONE',  #274 ) ;
#197 = AXIS2_PLACEMENT_3D ( 'NONE', #360, #74, #40 ) ;
#198 = EDGE_CURVE ( 'NONE', #366, #366, #295, .T. ) ;
#199 = DIRECTION ( 'NONE',  ( 3.491481338843133355E-15, -0.000000000000000000, 1.000000000000000000 ) ) ;
#200 = DIRECTION ( 'NONE',  ( -3.491481338843133355E-15, 0.000000000000000000, -1.000000000000000000 ) ) ;
#201 = ADVANCED_FACE ( 'NONE', ( #327, #46 ), #174, .T. ) ;
#202 = FACE_OUTER_BOUND ( 'NONE', #304, .T. ) ;
#203 = CC_DESIGN_PERSON_AND_ORGANIZATION_ASSIGNMENT ( #312, #8, ( #237 ) ) ;
#204 = FACE_BOUND ( 'NONE', #57, .T. ) ;
#205 = CIRCLE ( 'NONE', #335, 1.499999999999996447 ) ;
#206 = CARTESIAN_POINT ( 'NONE',  ( 2.994177371996566791E-14, 0.000000000000000000, 8.575664829383439880 ) ) ;
#207 = CYLINDRICAL_SURFACE ( 'NONE', #370, 0.5340598923241484108 ) ;
#208 = EDGE_LOOP ( 'NONE', ( #153 ) ) ;
#209 = CARTESIAN_POINT ( 'NONE',  ( 2.153080158953270565E-15, 0.000000000000000000, 0.6166666666666681396 ) ) ;
#210 = ORIENTED_EDGE ( 'NONE', *, *, #322, .T. ) ;
#211 =( NAMED_UNIT ( * ) PLANE_ANGLE_UNIT ( ) SI_UNIT ( $, .RADIAN. ) );
#212 = EDGE_LOOP ( 'NONE', ( #247 ) ) ;
#213 = LOCAL_TIME ( 10, 29, 50.00000000000000000, #315 ) ;
#214 = AXIS2_PLACEMENT_3D ( 'NONE', #10, #379, #73 ) ;
#215 = ORIENTED_EDGE ( 'NONE', *, *, #198, .T. ) ;
#216 = CARTESIAN_POINT ( 'NONE',  ( 0.5040741737109462051, 0.000000000000000000, 4.858819045102510614 ) ) ;
#217 = EDGE_CURVE ( 'NONE', #390, #390, #39, .T. ) ;
#218 = ORIENTED_EDGE ( 'NONE', *, *, #351, .T. ) ;
#219 = CARTESIAN_POINT ( 'NONE',  ( 0.000000000000000000, 0.000000000000000000, 0.000000000000000000 ) ) ;
#220 = EDGE_CURVE ( 'NONE', #333, #333, #282, .T. ) ;
#221 = ADVANCED_FACE ( 'NONE', ( #235, #204 ), #96, .T. ) ;
#222 = APPROVAL_PERSON_ORGANIZATION ( #371, #224, #127 ) ;
#223 = CARTESIAN_POINT ( 'NONE',  ( 7.564876234160016431E-16, 0.000000000000000000, 0.2166666666666636210 ) ) ;
#224 = APPROVAL ( #340, 'UNSPECIFIED' ) ;
#225 = PERSON ( 'UNSPECIFIED', 'UNSPECIFIED', 'UNSPECIFIED', ('UNSPECIFIED'), ('UNSPECIFIED'), ('UNSPECIFIED') ) ;
#226 = FACE_BOUND ( 'NONE', #151, .T. ) ;
#227 = APPROVAL ( #374, 'UNSPECIFIED' ) ;
#228 = EDGE_CURVE ( 'NONE', #251, #251, #9, .T. ) ;
#229 = CARTESIAN_POINT ( 'NONE',  ( -6.930636516168514067E-35, 0.000000000000000000, -1.985013191697284135E-20 ) ) ;
#230 = ORGANIZATION ( 'UNSPECIFIED', 'UNSPECIFIED', '' ) ;
#231 = AXIS2_PLACEMENT_3D ( 'NONE', #145, #49, #34 ) ;
#232 = ADVANCED_BREP_SHAPE_REPRESENTATION ( '960455', ( #287, #128 ), #188 ) ;
#233 = DIRECTION ( 'NONE',  ( 1.000000000000000000, 0.000000000000000000, -3.451192871279423381E-15 ) ) ;
#234 = FACE_OUTER_BOUND ( 'NONE', #365, .T. ) ;
#235 = FACE_OUTER_BOUND ( 'NONE', #307, .T. ) ;
#236 = ORIENTED_EDGE ( 'NONE', *, *, #183, .T. ) ;
#237 = SECURITY_CLASSIFICATION ( '', '', #1 ) ;
#238 = AXIS2_PLACEMENT_3D ( 'NONE', #106, #146, #266 ) ;
#239 = CYLINDRICAL_SURFACE ( 'NONE', #103, 0.7650000000000000133 ) ;
#240 = EDGE_CURVE ( 'NONE', #387, #387, #129, .T. ) ;
#241 = ORIENTED_EDGE ( 'NONE', *, *, #217, .T. ) ;
#242 = PRODUCT ( '960455', '960455', '', ( #58 ) ) ;
#243 = CC_DESIGN_DATE_AND_TIME_ASSIGNMENT ( #132, #98, ( #237 ) ) ;
#244 =( NAMED_UNIT ( * ) SI_UNIT ( $, .STERADIAN. ) SOLID_ANGLE_UNIT ( ) );
#245 = FACE_OUTER_BOUND ( 'NONE', #269, .T. ) ;
#246 = CLOSED_SHELL ( 'NONE', ( #140, #369, #201, #318, #257, #221, #279, #31, #341, #329, #27, #131, #194, #85, #166, #268 ) ) ;
#247 = ORIENTED_EDGE ( 'NONE', *, *, #228, .F. ) ;
#248 = PERSON_AND_ORGANIZATION ( #225, #230 ) ;
#249 = ORIENTED_EDGE ( 'NONE', *, *, #313, .F. ) ;
#250 = AXIS2_PLACEMENT_3D ( 'NONE', #320, #193, #348 ) ;
#251 = VERTEX_POINT ( 'NONE', #182 ) ;
#252 = CARTESIAN_POINT ( 'NONE',  ( 1.500000000000127898, 0.000000000000000000, 37.69999999999998863 ) ) ;
#253 = APPROVAL_DATE_TIME ( #38, #227 ) ;
#254 = AXIS2_PLACEMENT_3D ( 'NONE', #143, #19, #233 ) ;
#255 = DATE_AND_TIME ( #65, #48 ) ;
#256 = FACE_BOUND ( 'NONE', #61, .T. ) ;
#257 = ADVANCED_FACE ( 'NONE', ( #319, #170 ), #292, .T. ) ;
#258 = CONICAL_SURFACE ( 'NONE', #77, 0.7650000000000000133, 1.047197551196602960 ) ;
#259 = PERSON_AND_ORGANIZATION_ROLE ( 'creator' ) ;
#260 = DIRECTION ( 'NONE',  ( 1.000000000000000000, 0.000000000000000000, -3.491481338843133355E-15 ) ) ;
#261 = FACE_BOUND ( 'NONE', #305, .T. ) ;
#262 = DIRECTION ( 'NONE',  ( 1.000000000000000000, 0.000000000000000000, -4.625929269271490844E-15 ) ) ;
#263 = DIRECTION ( 'NONE',  ( 3.491481338843133355E-15, -0.000000000000000000, 1.000000000000000000 ) ) ;
#264 = DIRECTION ( 'NONE',  ( 3.491481338843133355E-15, -0.000000000000000000, 1.000000000000000000 ) ) ;
#265 = DIRECTION ( 'NONE',  ( 3.491481338843133355E-15, -0.000000000000000000, 1.000000000000000000 ) ) ;
#266 = DIRECTION ( 'NONE',  ( -1.000000000000000000, 0.000000000000000000, 3.491481338843133355E-15 ) ) ;
#267 = VERTEX_POINT ( 'NONE', #122 ) ;
#268 = ADVANCED_FACE ( 'NONE', ( #301 ), #68, .F. ) ;
#269 = EDGE_LOOP ( 'NONE', ( #186 ) ) ;
#270 = VERTEX_POINT ( 'NONE', #118 ) ;
#271 = ORIENTED_EDGE ( 'NONE', *, *, #240, .T. ) ;
#272 = CARTESIAN_POINT ( 'NONE',  ( 0.000000000000000000, 0.000000000000000000, 0.000000000000000000 ) ) ;
#273 = ORIENTED_EDGE ( 'NONE', *, *, #240, .F. ) ;
#274 = AXIS2_PLACEMENT_3D ( 'NONE', #229, #107, #260 ) ;
#275 = VERTEX_POINT ( 'NONE', #303 ) ;
#276 = EDGE_LOOP ( 'NONE', ( #241 ) ) ;
#277 = CARTESIAN_POINT ( 'NONE',  ( 1.500000000000029976, 0.000000000000000000, 8.575664829383434551 ) ) ;
#278 = DATE_AND_TIME ( #342, #213 ) ;
#279 = ADVANCED_FACE ( 'NONE', ( #234, #115 ), #239, .T. ) ;
#280 = APPROVAL_DATE_TIME ( #255, #180 ) ;
#281 = LOCAL_TIME ( 10, 29, 50.00000000000000000, #6 ) ;
#282 = CIRCLE ( 'NONE', #71, 0.4699999999999999734 ) ;
#283 = DIRECTION ( 'NONE',  ( 1.000000000000000000, 0.000000000000000000, -4.625929269271496366E-15 ) ) ;
#284 = EDGE_CURVE ( 'NONE', #126, #126, #377, .T. ) ;
#285 = PERSON_AND_ORGANIZATION ( #225, #230 ) ;
#286 = AXIS2_PLACEMENT_3D ( 'NONE', #353, #200, #382 ) ;
#287 = MANIFOLD_SOLID_BREP ( 'Corps-Déplacer/Copier1', #246 ) ;
#288 = CC_DESIGN_APPROVAL ( #224, ( #111 ) ) ;
#289 = DIRECTION ( 'NONE',  ( -3.491481338843133355E-15, 0.000000000000000000, -1.000000000000000000 ) ) ;
#290 = DIRECTION ( 'NONE',  ( -1.000000000000000000, 0.000000000000000000, 3.507712910982514253E-15 ) ) ;
#291 = DIRECTION ( 'NONE',  ( -1.000000000000000000, 0.000000000000000000, 4.625929269271496366E-15 ) ) ;
#292 = CYLINDRICAL_SURFACE ( 'NONE', #104, 0.5340598923241484108 ) ;
#293 = DIRECTION ( 'NONE',  ( 3.491481338843133355E-15, -0.000000000000000000, 1.000000000000000000 ) ) ;
#294 = CC_DESIGN_APPROVAL ( #180, ( #237 ) ) ;
#295 = CIRCLE ( 'NONE', #165, 0.7650000000000000133 ) ;
#296 = CARTESIAN_POINT ( 'NONE',  ( 1.326762908760390423E-13, 0.000000000000000000, 38.00000000000000000 ) ) ;
#297 = DIRECTION ( 'NONE',  ( 1.000000000000000000, 0.000000000000000000, -3.543144354527792031E-15 ) ) ;
#298 = DIRECTION ( 'NONE',  ( 3.491481338843133355E-15, -0.000000000000000000, 1.000000000000000000 ) ) ;
#299 = EDGE_CURVE ( 'NONE', #270, #270, #330, .T. ) ;
#300 = DIRECTION ( 'NONE',  ( 1.000000000000000000, 0.000000000000000000, -3.469446951953614189E-15 ) ) ;
#301 = FACE_OUTER_BOUND ( 'NONE', #116, .T. ) ;
#302 = ORIENTED_EDGE ( 'NONE', *, *, #351, .F. ) ;
#303 = CARTESIAN_POINT ( 'NONE',  ( 0.4700000000000155165, 0.000000000000000000, 4.599999999999997868 ) ) ;
#304 = EDGE_LOOP ( 'NONE', ( #334 ) ) ;
#305 = EDGE_LOOP ( 'NONE', ( #386 ) ) ;
#306 = PERSON_AND_ORGANIZATION_ROLE ( 'design_owner' ) ;
#307 = EDGE_LOOP ( 'NONE', ( #273 ) ) ;
#308 = CARTESIAN_POINT ( 'NONE',  ( 0.7650000000000022338, 0.000000000000000000, 0.6166666666666654750 ) ) ;
#309 = EDGE_LOOP ( 'NONE', ( #218 ) ) ;
#310 = DIRECTION ( 'NONE',  ( 3.491481338843133355E-15, -0.000000000000000000, 1.000000000000000000 ) ) ;
#311 = EDGE_CURVE ( 'NONE', #178, #178, #205, .T. ) ;
#312 = PERSON_AND_ORGANIZATION ( #225, #230 ) ;
#313 = EDGE_CURVE ( 'NONE', #362, #362, #135, .T. ) ;
#314 = AXIS2_PLACEMENT_3D ( 'NONE', #167, #323, #262 ) ;
#315 = COORDINATED_UNIVERSAL_TIME_OFFSET ( 1, 0, .AHEAD. ) ;
#316 = AXIS2_PLACEMENT_3D ( 'NONE', #72, #289, #291 ) ;
#317 = CONICAL_SURFACE ( 'NONE', #114, 0.7650000000000000133, 1.047197551196580312 ) ;
#318 = ADVANCED_FACE ( 'NONE', ( #256, #108 ), #317, .T. ) ;
#319 = FACE_OUTER_BOUND ( 'NONE', #212, .T. ) ;
#320 = CARTESIAN_POINT ( 'NONE',  ( 2.036697447658488278E-15, 0.000000000000000000, 0.5833333333333314830 ) ) ;
#321 = PERSON_AND_ORGANIZATION ( #225, #230 ) ;
#322 = EDGE_CURVE ( 'NONE', #54, #54, #161, .T. ) ;
#323 = DIRECTION ( 'NONE',  ( 3.491481338843133355E-15, -0.000000000000000000, 1.000000000000000000 ) ) ;
#324 = DIRECTION ( 'NONE',  ( 1.000000000000000000, 0.000000000000000000, -3.441405186871597863E-15 ) ) ;
#325 = FACE_OUTER_BOUND ( 'NONE', #123, .T. ) ;
#326 = CYLINDRICAL_SURFACE ( 'NONE', #12, 0.4699999999999996958 ) ;
#327 = FACE_OUTER_BOUND ( 'NONE', #89, .T. ) ;
#328 = DIRECTION ( 'NONE',  ( 3.491481338843133355E-15, -0.000000000000000000, 1.000000000000000000 ) ) ;
#329 = ADVANCED_FACE ( 'NONE', ( #261, #11 ), #78, .F. ) ;
#330 = CIRCLE ( 'NONE', #64, 0.7650000000000000133 ) ;
#331 = CARTESIAN_POINT ( 'NONE',  ( 1.326762908760390423E-13, 0.000000000000000000, 38.00000000000000000 ) ) ;
#332 = DIRECTION ( 'NONE',  ( 1.000000000000000000, 0.000000000000000000, -3.441405186871597863E-15 ) ) ;
#333 = VERTEX_POINT ( 'NONE', #90 ) ;
#334 = ORIENTED_EDGE ( 'NONE', *, *, #55, .F. ) ;
#335 = AXIS2_PLACEMENT_3D ( 'NONE', #162, #175, #283 ) ;
#336 = ORIENTED_EDGE ( 'NONE', *, *, #23, .F. ) ;
#337 = EDGE_LOOP ( 'NONE', ( #302 ) ) ;
#338 = DIRECTION ( 'NONE',  ( 1.000000000000000000, 0.000000000000000000, 0.000000000000000000 ) ) ;
#339 = CIRCLE ( 'NONE', #2, 1.500000000000000000 ) ;
#340 = APPROVAL_STATUS ( 'not_yet_approved' ) ;
#341 = ADVANCED_FACE ( 'NONE', ( #325, #172 ), #207, .T. ) ;
#342 = CALENDAR_DATE ( 2023, 27, 9 ) ;
#343 = APPLICATION_CONTEXT ( 'configuration controlled 3d designs of mechanical parts and assemblies' ) ;
#344 = CIRCLE ( 'NONE', #45, 0.4699999999999994738 ) ;
#345 = TOROIDAL_SURFACE ( 'NONE', #391, 1.469999999999999529, 1.000000000000000000 ) ;
#346 = PERSON_AND_ORGANIZATION_ROLE ( 'creator' ) ;
#347 = APPROVAL_PERSON_ORGANIZATION ( #321, #227, #69 ) ;
#348 = DIRECTION ( 'NONE',  ( 1.000000000000000000, 0.000000000000000000, -3.543144354527792031E-15 ) ) ;
#349 = CALENDAR_DATE ( 2023, 27, 9 ) ;
#350 = FACE_OUTER_BOUND ( 'NONE', #208, .T. ) ;
#351 = EDGE_CURVE ( 'NONE', #150, #150, #160, .T. ) ;
#352 = CARTESIAN_POINT ( 'NONE',  ( 1.696447602479103295E-14, 0.000000000000000000, 4.858819045102512391 ) ) ;
#353 = CARTESIAN_POINT ( 'NONE',  ( 2.793185071074506684E-15, 0.5340598923241484108, 0.8000000000000000444 ) ) ;
#354 = DIRECTION ( 'NONE',  ( 1.000000000000000000, 0.000000000000000000, -3.491481338843133750E-15 ) ) ;
#355 = DIRECTION ( 'NONE',  ( 3.491481338843133355E-15, -0.000000000000000000, 1.000000000000000000 ) ) ;
#356 = CARTESIAN_POINT ( 'NONE',  ( 7.564876234160016431E-16, 0.000000000000000000, 0.2166666666666636210 ) ) ;
#357 = DIRECTION ( 'NONE',  ( 1.000000000000000000, 0.000000000000000000, -5.782411586589388010E-15 ) ) ;
#358 = CC_DESIGN_SECURITY_CLASSIFICATION ( #237, ( #56 ) ) ;
#359 = ORIENTED_EDGE ( 'NONE', *, *, #183, .F. ) ;
#360 = CARTESIAN_POINT ( 'NONE',  ( 2.793185071074513784E-15, 0.000000000000000000, 0.8000000000000020428 ) ) ;
#361 = EDGE_LOOP ( 'NONE', ( #336 ) ) ;
#362 = VERTEX_POINT ( 'NONE', #308 ) ;
#363 = DIRECTION ( 'NONE',  ( -3.491481338843133355E-15, 0.000000000000000000, -1.000000000000000000 ) ) ;
#364 = APPLICATION_CONTEXT ( 'configuration controlled 3d designs of mechanical parts and assemblies' ) ;
#365 = EDGE_LOOP ( 'NONE', ( #249 ) ) ;
#366 = VERTEX_POINT ( 'NONE', #32 ) ;
#367 = EDGE_LOOP ( 'NONE', ( #236 ) ) ;
#368 = CARTESIAN_POINT ( 'NONE',  ( 0.5340598923241511864, 0.000000000000000000, 0.8000000000000002665 ) ) ;
#369 = ADVANCED_FACE ( 'NONE', ( #36, #87 ), #101, .T. ) ;
#370 = AXIS2_PLACEMENT_3D ( 'NONE', #331, #263, #50 ) ;
#371 = PERSON_AND_ORGANIZATION ( #225, #230 ) ;
#372 = DIRECTION ( 'NONE',  ( 3.491481338843133355E-15, -0.000000000000000000, 1.000000000000000000 ) ) ;
#373 = CALENDAR_DATE ( 2023, 27, 9 ) ;
#374 = APPROVAL_STATUS ( 'not_yet_approved' ) ;
#375 = CARTESIAN_POINT ( 'NONE',  ( 1.326762908760390423E-13, 0.000000000000000000, 38.00000000000000000 ) ) ;
#376 = COORDINATED_UNIVERSAL_TIME_OFFSET ( 1, 0, .AHEAD. ) ;
#377 = CIRCLE ( 'NONE', #197, 0.5340598923241484108 ) ;
#378 = AXIS2_PLACEMENT_3D ( 'NONE', #76, #110, #357 ) ;
#379 = DIRECTION ( 'NONE',  ( 3.491481338843133355E-15, -0.000000000000000000, 1.000000000000000000 ) ) ;
#380 = CIRCLE ( 'NONE', #214, 0.5340598923241484108 ) ;
#381 = DIRECTION ( 'NONE',  ( 3.491481338843133355E-15, -0.000000000000000000, 1.000000000000000000 ) ) ;
#382 = DIRECTION ( 'NONE',  ( -1.000000000000000000, 0.000000000000000000, 3.491481338843133355E-15 ) ) ;
#383 = DIRECTION ( 'NONE',  ( 1.000000000000000000, 0.000000000000000000, -3.507712910982514253E-15 ) ) ;
#384 = DIRECTION ( 'NONE',  ( 3.491481338843133355E-15, -0.000000000000000000, 1.000000000000000000 ) ) ;
#385 = CYLINDRICAL_SURFACE ( 'NONE', #314, 1.499999999999998224 ) ;
#386 = ORIENTED_EDGE ( 'NONE', *, *, #220, .F. ) ;
#387 = VERTEX_POINT ( 'NONE', #187 ) ;
#388 = EDGE_LOOP ( 'NONE', ( #215 ) ) ;
#389 = ORIENTED_EDGE ( 'NONE', *, *, #217, .F. ) ;
#390 = VERTEX_POINT ( 'NONE', #156 ) ;
#391 = AXIS2_PLACEMENT_3D ( 'NONE', #17, #137, #141 ) ;
#392 = ORIENTED_EDGE ( 'NONE', *, *, #220, .T. ) ;
#393 = CARTESIAN_POINT ( 'NONE',  ( 0.5340598923241509643, 0.000000000000000000, 0.7499999999999987788 ) ) ;
#394 = CARTESIAN_POINT ( 'NONE',  ( 2.793185071074513784E-15, 0.000000000000000000, 0.8000000000000020428 ) ) ;
#395 = VERTEX_POINT ( 'NONE', #393 ) ;
ENDSEC;
END-ISO-10303-21;
