ISO-10303-21;
HEADER;
FILE_DESCRIPTION (( 'STEP AP203' ),
    '1' );
FILE_NAME ('960454.step',
    '2023-09-27T08:29:49',
    ( '' ),
    ( '' ),
    'SwSTEP 2.0',
    'SolidWorks 2022',
    '' );
FILE_SCHEMA (( 'CONFIG_CONTROL_DESIGN' ));
ENDSEC;

DATA;
#1 = DIRECTION ( 'NONE',  ( 1.000000000000000000, 0.000000000000000000, -3.491481338843133355E-15 ) ) ;
#2 = AXIS2_PLACEMENT_3D ( 'NONE', #213, #149, #342 ) ;
#3 = DIRECTION ( 'NONE',  ( 3.491481338843133355E-15, -0.000000000000000000, 1.000000000000000000 ) ) ;
#4 = ADVANCED_FACE ( 'NONE', ( #194, #51 ), #95, .T. ) ;
#5 = ORIENTED_EDGE ( 'NONE', *, *, #211, .F. ) ;
#6 = CARTESIAN_POINT ( 'NONE',  ( 2.444036937190193349E-15, 0.4929274057836297573, 0.6999999999999999556 ) ) ;
#7 = AXIS2_PLACEMENT_3D ( 'NONE', #316, #142, #115 ) ;
#8 = DIRECTION ( 'NONE',  ( 3.491481338843133355E-15, -0.000000000000000000, 1.000000000000000000 ) ) ;
#9 = CARTESIAN_POINT ( 'NONE',  ( 1.200000000000126299, 0.000000000000000000, 37.99999999999999289 ) ) ;
#10 = FACE_OUTER_BOUND ( 'NONE', #68, .T. ) ;
#11 = CARTESIAN_POINT ( 'NONE',  ( 1.374770777169477842E-15, 0.000000000000000000, 0.3937499999999982681 ) ) ;
#12 = CIRCLE ( 'NONE', #286, 0.4929274057836297573 ) ;
#13 = ORIENTED_EDGE ( 'NONE', *, *, #211, .T. ) ;
#14 = CIRCLE ( 'NONE', #47, 1.500000000000000000 ) ;
#15 = CARTESIAN_POINT ( 'NONE',  ( 1.326762908760390423E-13, 0.000000000000000000, 38.00000000000000000 ) ) ;
#16 = CONICAL_SURFACE ( 'NONE', #340, 0.4171501829524911775, 1.047197551196591414 ) ;
#17 = EDGE_LOOP ( 'NONE', ( #292 ) ) ;
#18 = AXIS2_PLACEMENT_3D ( 'NONE', #299, #357, #263 ) ;
#19 = ORIENTED_EDGE ( 'NONE', *, *, #146, .T. ) ;
#20 = DATE_AND_TIME ( #294, #62 ) ;
#21 = DIRECTION ( 'NONE',  ( 1.000000000000000000, 0.000000000000000000, -3.820352656923314831E-15 ) ) ;
#22 = ORIENTED_EDGE ( 'NONE', *, *, #240, .T. ) ;
#23 = AXIS2_PLACEMENT_3D ( 'NONE', #285, #46, #164 ) ;
#24 = APPROVAL_STATUS ( 'not_yet_approved' ) ;
#25 =( NAMED_UNIT ( * ) PLANE_ANGLE_UNIT ( ) SI_UNIT ( $, .RADIAN. ) );
#26 = AXIS2_PLACEMENT_3D ( 'NONE', #239, #179, #1 ) ;
#27 = APPROVAL_ROLE ( '' ) ;
#28 = ADVANCED_BREP_SHAPE_REPRESENTATION ( '960454', ( #268, #18 ), #86 ) ;
#29 = ADVANCED_FACE ( 'NONE', ( #10 ), #42, .F. ) ;
#30 = FACE_OUTER_BOUND ( 'NONE', #218, .T. ) ;
#31 = CIRCLE ( 'NONE', #7, 0.6949999999999999512 ) ;
#32 = EDGE_CURVE ( 'NONE', #154, #154, #327, .T. ) ;
#33 = APPLICATION_CONTEXT ( 'configuration controlled 3d designs of mechanical parts and assemblies' ) ;
#34 = ORIENTED_EDGE ( 'NONE', *, *, #230, .F. ) ;
#35 = CARTESIAN_POINT ( 'NONE',  ( 0.4929274057836312006, 0.000000000000000000, 0.3937499999999965472 ) ) ;
#36 = CARTESIAN_POINT ( 'NONE',  ( 1.326762908760390423E-13, 0.000000000000000000, 38.00000000000000000 ) ) ;
#37 = DIRECTION ( 'NONE',  ( 1.000000000000000000, 0.000000000000000000, -3.432006876932533006E-15 ) ) ;
#38 = DIRECTION ( 'NONE',  ( -1.000000000000000000, 0.000000000000000000, 3.491481338843133355E-15 ) ) ;
#39 = FACE_BOUND ( 'NONE', #352, .T. ) ;
#40 = EDGE_LOOP ( 'NONE', ( #48 ) ) ;
#41 = DIRECTION ( 'NONE',  ( 3.491481338843133355E-15, -0.000000000000000000, 1.000000000000000000 ) ) ;
#42 = PLANE ( 'NONE',  #23 ) ;
#43 = CARTESIAN_POINT ( 'NONE',  ( 1.069266160020712943E-15, 0.000000000000000000, 0.3062500000000009659 ) ) ;
#44 = EDGE_CURVE ( 'NONE', #372, #372, #277, .T. ) ;
#45 = CIRCLE ( 'NONE', #300, 0.6949999999999999512 ) ;
#46 = DIRECTION ( 'NONE',  ( 3.491481338843133355E-15, -0.000000000000000000, 1.000000000000000000 ) ) ;
#47 = AXIS2_PLACEMENT_3D ( 'NONE', #329, #140, #334 ) ;
#48 = ORIENTED_EDGE ( 'NONE', *, *, #59, .F. ) ;
#49 = AXIS2_PLACEMENT_3D ( 'NONE', #72, #195, #37 ) ;
#50 = APPROVAL_PERSON_ORGANIZATION ( #200, #111, #139 ) ;
#51 = FACE_BOUND ( 'NONE', #252, .T. ) ;
#52 = DATE_AND_TIME ( #325, #322 ) ;
#53 = PERSON_AND_ORGANIZATION ( #270, #279 ) ;
#54 = CARTESIAN_POINT ( 'NONE',  ( 2.444036937190190588E-15, 0.000000000000000000, 0.6999999999999992895 ) ) ;
#55 = PERSON_AND_ORGANIZATION ( #270, #279 ) ;
#56 = PERSON_AND_ORGANIZATION ( #270, #279 ) ;
#57 = CIRCLE ( 'NONE', #262, 0.6949999999999998401 ) ;
#58 = VERTEX_POINT ( 'NONE', #369 ) ;
#59 = EDGE_CURVE ( 'NONE', #186, #186, #123, .T. ) ;
#60 = CARTESIAN_POINT ( 'NONE',  ( 1.326762908760390423E-13, 0.000000000000000000, 38.00000000000000000 ) ) ;
#61 = CONICAL_SURFACE ( 'NONE', #360, 0.6949999999999999512, 1.047197551196596743 ) ;
#62 = LOCAL_TIME ( 10, 29, 49.00000000000000000, #119 ) ;
#63 = CARTESIAN_POINT ( 'NONE',  ( 0.4200000000000024269, 0.000000000000000000, 0.6999999999999977351 ) ) ;
#64 = DIRECTION ( 'NONE',  ( 1.000000000000000000, 0.000000000000000000, -3.491481338843133750E-15 ) ) ;
#65 = AXIS2_PLACEMENT_3D ( 'NONE', #54, #120, #127 ) ;
#66 = CYLINDRICAL_SURFACE ( 'NONE', #134, 0.4199999999999997069 ) ;
#67 = CIRCLE ( 'NONE', #362, 0.4171501829524911775 ) ;
#68 = EDGE_LOOP ( 'NONE', ( #255 ) ) ;
#69 = DIRECTION ( 'NONE',  ( 1.000000000000000000, 0.000000000000000000, -3.519227082168490994E-15 ) ) ;
#70 = EDGE_LOOP ( 'NONE', ( #386 ) ) ;
#71 = ORIENTED_EDGE ( 'NONE', *, *, #146, .F. ) ;
#72 = CARTESIAN_POINT ( 'NONE',  ( 1.782110266701180152E-15, 0.000000000000000000, 0.5104166666666659635 ) ) ;
#73 = FACE_BOUND ( 'NONE', #220, .T. ) ;
#74 = EDGE_LOOP ( 'NONE', ( #19 ) ) ;
#75 = FACE_OUTER_BOUND ( 'NONE', #228, .T. ) ;
#76 = ADVANCED_FACE ( 'NONE', ( #243, #345 ), #66, .T. ) ;
#77 = ORIENTED_EDGE ( 'NONE', *, *, #32, .F. ) ;
#78 = AXIS2_PLACEMENT_3D ( 'NONE', #282, #311, #193 ) ;
#79 = PERSON_AND_ORGANIZATION_ROLE ( 'classification_officer' ) ;
#80 = FACE_OUTER_BOUND ( 'NONE', #314, .T. ) ;
#81 = DIRECTION ( 'NONE',  ( 3.491481338843133355E-15, -0.000000000000000000, 1.000000000000000000 ) ) ;
#82 = AXIS2_PLACEMENT_3D ( 'NONE', #168, #296, #317 ) ;
#83 = COORDINATED_UNIVERSAL_TIME_OFFSET ( 1, 0, .AHEAD. ) ;
#84 = DIRECTION ( 'NONE',  ( 3.491481338843133355E-15, -0.000000000000000000, 1.000000000000000000 ) ) ;
#85 = VERTEX_POINT ( 'NONE', #175 ) ;
#86 =( GEOMETRIC_REPRESENTATION_CONTEXT ( 3 ) GLOBAL_UNCERTAINTY_ASSIGNED_CONTEXT ( ( #336 ) ) GLOBAL_UNIT_ASSIGNED_CONTEXT ( ( #319, #25, #295 ) ) REPRESENTATION_CONTEXT ( 'NONE', 'WORKASPACE' ) );
#87 = APPROVAL_STATUS ( 'not_yet_approved' ) ;
#88 = EDGE_CURVE ( 'NONE', #158, #158, #12, .T. ) ;
#89 = DIRECTION ( 'NONE',  ( 1.000000000000000000, 0.000000000000000000, 0.000000000000000000 ) ) ;
#90 = FACE_BOUND ( 'NONE', #377, .T. ) ;
#91 = TOROIDAL_SURFACE ( 'NONE', #26, 1.419999999999999485, 1.000000000000000000 ) ;
#92 = PRODUCT_DEFINITION_FORMATION_WITH_SPECIFIED_SOURCE ( 'ANY', '', #114, .NOT_KNOWN. ) ;
#93 = CYLINDRICAL_SURFACE ( 'NONE', #2, 0.6949999999999999512 ) ;
#94 = FACE_OUTER_BOUND ( 'NONE', #70, .T. ) ;
#95 = CONICAL_SURFACE ( 'NONE', #82, 0.4540741737109291742, 0.2617993877991425800 ) ;
#96 = AXIS2_PLACEMENT_3D ( 'NONE', #36, #254, #157 ) ;
#97 = CARTESIAN_POINT ( 'NONE',  ( 0.6950000000000005063, 0.000000000000000000, 0.1604166666666673735 ) ) ;
#98 = DIRECTION ( 'NONE',  ( 1.000000000000000000, 0.000000000000000000, 0.000000000000000000 ) ) ;
#99 = EDGE_LOOP ( 'NONE', ( #244 ) ) ;
#100 = AXIS2_PLACEMENT_3D ( 'NONE', #11, #280, #69 ) ;
#101 = ORIENTED_EDGE ( 'NONE', *, *, #88, .F. ) ;
#102 = EDGE_CURVE ( 'NONE', #156, #156, #45, .T. ) ;
#103 = FACE_BOUND ( 'NONE', #106, .T. ) ;
#104 = AXIS2_PLACEMENT_3D ( 'NONE', #60, #212, #271 ) ;
#105 = DIRECTION ( 'NONE',  ( -3.491481338843133355E-15, 0.000000000000000000, -1.000000000000000000 ) ) ;
#106 = EDGE_LOOP ( 'NONE', ( #136 ) ) ;
#107 = CC_DESIGN_SECURITY_CLASSIFICATION ( #125, ( #92 ) ) ;
#108 = DIRECTION ( 'NONE',  ( 3.491481338843133355E-15, -0.000000000000000000, 1.000000000000000000 ) ) ;
#109 = EDGE_LOOP ( 'NONE', ( #376 ) ) ;
#110 = CARTESIAN_POINT ( 'NONE',  ( 1.883945139084117760E-15, 0.000000000000000000, 0.5395833333333364124 ) ) ;
#111 = APPROVAL ( #87, 'UNSPECIFIED' ) ;
#112 = ORIENTED_EDGE ( 'NONE', *, *, #375, .T. ) ;
#113 = PERSON_AND_ORGANIZATION ( #270, #279 ) ;
#114 = PRODUCT ( '960454', '960454', '', ( #330 ) ) ;
#115 = DIRECTION ( 'NONE',  ( 1.000000000000000000, 0.000000000000000000, -3.510007033226453485E-15 ) ) ;
#116 = APPROVAL_DATE_TIME ( #166, #304 ) ;
#117 = APPROVAL_STATUS ( 'not_yet_approved' ) ;
#118 = ADVANCED_FACE ( 'NONE', ( #75, #39 ), #332, .T. ) ;
#119 = COORDINATED_UNIVERSAL_TIME_OFFSET ( 1, 0, .AHEAD. ) ;
#120 = DIRECTION ( 'NONE',  ( 3.491481338843133355E-15, -0.000000000000000000, 1.000000000000000000 ) ) ;
#121 = FACE_OUTER_BOUND ( 'NONE', #162, .T. ) ;
#122 = ADVANCED_FACE ( 'NONE', ( #251, #353 ), #135, .T. ) ;
#123 = CIRCLE ( 'NONE', #303, 0.4199999999999993738 ) ;
#124 = CARTESIAN_POINT ( 'NONE',  ( 1.316288464743861212E-13, 0.000000000000000000, 37.69999999999999574 ) ) ;
#125 = SECURITY_CLASSIFICATION ( '', '', #384 ) ;
#126 = DIRECTION ( 'NONE',  ( 1.000000000000000000, 0.000000000000000000, -4.130293990420975208E-15 ) ) ;
#127 = DIRECTION ( 'NONE',  ( 1.000000000000000000, 0.000000000000000000, -3.614007241618348376E-15 ) ) ;
#128 = EDGE_LOOP ( 'NONE', ( #71 ) ) ;
#129 = DIRECTION ( 'NONE',  ( -1.000000000000000000, 0.000000000000000000, 3.491481338843133355E-15 ) ) ;
#130 = PLANE ( 'NONE',  #341 ) ;
#131 = VERTEX_POINT ( 'NONE', #173 ) ;
#132 = DIRECTION ( 'NONE',  ( 3.491481338843133355E-15, -0.000000000000000000, 1.000000000000000000 ) ) ;
#133 = EDGE_LOOP ( 'NONE', ( #34 ) ) ;
#134 = AXIS2_PLACEMENT_3D ( 'NONE', #373, #132, #98 ) ;
#135 = CYLINDRICAL_SURFACE ( 'NONE', #96, 0.4929274057836297573 ) ;
#136 = ORIENTED_EDGE ( 'NONE', *, *, #375, .F. ) ;
#137 = CARTESIAN_POINT ( 'NONE',  ( 1.316288464743861212E-13, 0.000000000000000000, 37.69999999999999574 ) ) ;
#138 = EDGE_LOOP ( 'NONE', ( #281 ) ) ;
#139 = APPROVAL_ROLE ( '' ) ;
#140 = DIRECTION ( 'NONE',  ( 3.491481338843133355E-15, -0.000000000000000000, 1.000000000000000000 ) ) ;
#141 = EDGE_LOOP ( 'NONE', ( #160 ) ) ;
#142 = DIRECTION ( 'NONE',  ( 3.491481338843133355E-15, -0.000000000000000000, 1.000000000000000000 ) ) ;
#143 = ADVANCED_FACE ( 'NONE', ( #73, #197 ), #61, .T. ) ;
#144 = APPLICATION_PROTOCOL_DEFINITION ( 'international standard', 'config_control_design', 1994, #33 ) ;
#145 = PRODUCT_RELATED_PRODUCT_CATEGORY ( 'detail', '', ( #114 ) ) ;
#146 = EDGE_CURVE ( 'NONE', #216, #216, #31, .T. ) ;
#147 = FACE_OUTER_BOUND ( 'NONE', #258, .T. ) ;
#148 = APPROVAL_PERSON_ORGANIZATION ( #229, #304, #359 ) ;
#149 = DIRECTION ( 'NONE',  ( 3.491481338843133355E-15, -0.000000000000000000, 1.000000000000000000 ) ) ;
#150 = VERTEX_POINT ( 'NONE', #351 ) ;
#151 = AXIS2_PLACEMENT_3D ( 'NONE', #137, #81, #388 ) ;
#152 = CARTESIAN_POINT ( 'NONE',  ( 0.4540741737109443843, 0.000000000000000000, 4.358819045102509726 ) ) ;
#153 = EDGE_LOOP ( 'NONE', ( #201 ) ) ;
#154 = VERTEX_POINT ( 'NONE', #214 ) ;
#155 = FACE_OUTER_BOUND ( 'NONE', #192, .T. ) ;
#156 = VERTEX_POINT ( 'NONE', #97 ) ;
#157 = DIRECTION ( 'NONE',  ( 1.000000000000000000, 0.000000000000000000, 0.000000000000000000 ) ) ;
#158 = VERTEX_POINT ( 'NONE', #35 ) ;
#159 = DIRECTION ( 'NONE',  ( 3.491481338843133355E-15, -0.000000000000000000, 1.000000000000000000 ) ) ;
#160 = ORIENTED_EDGE ( 'NONE', *, *, #183, .T. ) ;
#161 = FACE_OUTER_BOUND ( 'NONE', #383, .T. ) ;
#162 = EDGE_LOOP ( 'NONE', ( #112 ) ) ;
#163 = FACE_OUTER_BOUND ( 'NONE', #141, .T. ) ;
#164 = DIRECTION ( 'NONE',  ( 1.000000000000000000, 0.000000000000000000, -3.491481338843133355E-15 ) ) ;
#165 = ORIENTED_EDGE ( 'NONE', *, *, #393, .F. ) ;
#166 = DATE_AND_TIME ( #234, #272 ) ;
#167 = CARTESIAN_POINT ( 'NONE',  ( 2.444036937190190588E-15, 0.000000000000000000, 0.6999999999999992895 ) ) ;
#168 = CARTESIAN_POINT ( 'NONE',  ( 1.521873535536946627E-14, 0.000000000000000000, 4.358819045102511502 ) ) ;
#169 = COORDINATED_UNIVERSAL_TIME_OFFSET ( 1, 0, .AHEAD. ) ;
#170 = FACE_BOUND ( 'NONE', #354, .T. ) ;
#171 = PERSON_AND_ORGANIZATION ( #270, #279 ) ;
#172 = ADVANCED_FACE ( 'NONE', ( #80, #121 ), #265, .T. ) ;
#173 = CARTESIAN_POINT ( 'NONE',  ( 0.6950000000000017275, 0.000000000000000000, 0.5395833333333339699 ) ) ;
#174 = DATE_AND_TIME ( #205, #208 ) ;
#175 = CARTESIAN_POINT ( 'NONE',  ( 0.4929274057836322553, 0.000000000000000000, 0.6999999999999975131 ) ) ;
#176 = PERSON_AND_ORGANIZATION_ROLE ( 'design_supplier' ) ;
#177 = DIRECTION ( 'NONE',  ( 1.000000000000000000, 0.000000000000000000, -3.519227082168490994E-15 ) ) ;
#178 = CC_DESIGN_DATE_AND_TIME_ASSIGNMENT ( #20, #209, ( #382 ) ) ;
#179 = DIRECTION ( 'NONE',  ( 3.491481338843133355E-15, -0.000000000000000000, 1.000000000000000000 ) ) ;
#180 = AXIS2_PLACEMENT_3D ( 'NONE', #124, #307, #338 ) ;
#181 = SHAPE_DEFINITION_REPRESENTATION ( #235, #28 ) ;
#182 = APPROVAL_DATE_TIME ( #174, #288 ) ;
#183 = EDGE_CURVE ( 'NONE', #188, #188, #14, .T. ) ;
#184 = CONICAL_SURFACE ( 'NONE', #233, 0.6949999999999998401, 1.047197551196622056 ) ;
#185 = FACE_BOUND ( 'NONE', #370, .T. ) ;
#186 = VERTEX_POINT ( 'NONE', #308 ) ;
#187 = ADVANCED_FACE ( 'NONE', ( #185, #155 ), #276, .F. ) ;
#188 = VERTEX_POINT ( 'NONE', #309 ) ;
#189 = CARTESIAN_POINT ( 'NONE',  ( 5.600917981060968883E-16, 0.000000000000000000, 0.1604166666666698160 ) ) ;
#190 = ORIENTED_EDGE ( 'NONE', *, *, #102, .F. ) ;
#191 = CC_DESIGN_APPROVAL ( #111, ( #92 ) ) ;
#192 = EDGE_LOOP ( 'NONE', ( #348 ) ) ;
#193 = DIRECTION ( 'NONE',  ( 1.000000000000000000, 0.000000000000000000, -3.519227082168490994E-15 ) ) ;
#194 = FACE_OUTER_BOUND ( 'NONE', #222, .T. ) ;
#195 = DIRECTION ( 'NONE',  ( 3.491481338843133355E-15, -0.000000000000000000, 1.000000000000000000 ) ) ;
#196 = CARTESIAN_POINT ( 'NONE',  ( 0.6950000000000016165, 0.000000000000000000, 0.5104166666666636321 ) ) ;
#197 = FACE_OUTER_BOUND ( 'NONE', #74, .T. ) ;
#198 = ORIENTED_EDGE ( 'NONE', *, *, #44, .F. ) ;
#199 = AXIS2_PLACEMENT_3D ( 'NONE', #167, #210, #177 ) ;
#200 = PERSON_AND_ORGANIZATION ( #270, #279 ) ;
#201 = ORIENTED_EDGE ( 'NONE', *, *, #230, .T. ) ;
#202 = COORDINATED_UNIVERSAL_TIME_OFFSET ( 1, 0, .AHEAD. ) ;
#203 = APPROVAL_DATE_TIME ( #363, #111 ) ;
#204 = CIRCLE ( 'NONE', #199, 0.4929274057836297573 ) ;
#205 = CALENDAR_DATE ( 2023, 27, 9 ) ;
#206 = CIRCLE ( 'NONE', #301, 0.4540741737109291742 ) ;
#207 = CIRCLE ( 'NONE', #248, 0.4929274057836296463 ) ;
#208 = LOCAL_TIME ( 10, 29, 49.00000000000000000, #83 ) ;
#209 = DATE_TIME_ROLE ( 'creation_date' ) ;
#210 = DIRECTION ( 'NONE',  ( 3.491481338843133355E-15, -0.000000000000000000, 1.000000000000000000 ) ) ;
#211 = EDGE_CURVE ( 'NONE', #278, #278, #245, .T. ) ;
#212 = DIRECTION ( 'NONE',  ( 3.491481338843133355E-15, -0.000000000000000000, 1.000000000000000000 ) ) ;
#213 = CARTESIAN_POINT ( 'NONE',  ( 1.326762908760390423E-13, 0.000000000000000000, 38.00000000000000000 ) ) ;
#214 = CARTESIAN_POINT ( 'NONE',  ( 1.500000000000127898, 0.000000000000000000, 37.69999999999998863 ) ) ;
#215 = CC_DESIGN_PERSON_AND_ORGANIZATION_ASSIGNMENT ( #55, #79, ( #125 ) ) ;
#216 = VERTEX_POINT ( 'NONE', #343 ) ;
#217 = VERTEX_POINT ( 'NONE', #196 ) ;
#218 = EDGE_LOOP ( 'NONE', ( #190 ) ) ;
#219 = CYLINDRICAL_SURFACE ( 'NONE', #269, 1.499999999999998224 ) ;
#220 = EDGE_LOOP ( 'NONE', ( #344 ) ) ;
#221 = DIRECTION ( 'NONE',  ( -1.000000000000000000, 0.000000000000000000, 3.510007033226453485E-15 ) ) ;
#222 = EDGE_LOOP ( 'NONE', ( #324 ) ) ;
#223 = CARTESIAN_POINT ( 'NONE',  ( 1.374770777169477842E-15, 0.000000000000000000, 0.3937499999999982681 ) ) ;
#224 = EDGE_LOOP ( 'NONE', ( #13 ) ) ;
#225 = DIRECTION ( 'NONE',  ( 3.491481338843133355E-15, -0.000000000000000000, 1.000000000000000000 ) ) ;
#226 = CLOSED_SHELL ( 'NONE', ( #29, #312, #333, #143, #122, #118, #284, #246, #172, #187, #76, #298, #4, #390, #274, #339 ) ) ;
#227 = AXIS2_PLACEMENT_3D ( 'NONE', #350, #250, #318 ) ;
#228 = EDGE_LOOP ( 'NONE', ( #165 ) ) ;
#229 = PERSON_AND_ORGANIZATION ( #270, #279 ) ;
#230 = EDGE_CURVE ( 'NONE', #131, #131, #57, .T. ) ;
#231 = CALENDAR_DATE ( 2023, 27, 9 ) ;
#232 = VERTEX_POINT ( 'NONE', #361 ) ;
#233 = AXIS2_PLACEMENT_3D ( 'NONE', #110, #328, #356 ) ;
#234 = CALENDAR_DATE ( 2023, 27, 9 ) ;
#235 = PRODUCT_DEFINITION_SHAPE ( 'NONE', 'NONE',  #382 ) ;
#236 = CC_DESIGN_PERSON_AND_ORGANIZATION_ASSIGNMENT ( #259, #264, ( #382 ) ) ;
#237 = CC_DESIGN_APPROVAL ( #304, ( #382 ) ) ;
#238 = CARTESIAN_POINT ( 'NONE',  ( 1.431507348925684360E-14, 0.000000000000000000, 4.099999999999999645 ) ) ;
#239 = CARTESIAN_POINT ( 'NONE',  ( 1.431507348925684360E-14, 0.000000000000000000, 4.099999999999999645 ) ) ;
#240 = EDGE_CURVE ( 'NONE', #232, #232, #67, .T. ) ;
#241 = DIRECTION ( 'NONE',  ( 1.000000000000000000, 0.000000000000000000, -3.491481338843133750E-15 ) ) ;
#242 = CC_DESIGN_APPROVAL ( #288, ( #125 ) ) ;
#243 = FACE_OUTER_BOUND ( 'NONE', #40, .T. ) ;
#244 = ORIENTED_EDGE ( 'NONE', *, *, #261, .F. ) ;
#245 = CIRCLE ( 'NONE', #227, 1.199999999999993516 ) ;
#246 = ADVANCED_FACE ( 'NONE', ( #103, #289 ), #184, .T. ) ;
#247 = DIRECTION ( 'NONE',  ( -3.491481338843133355E-15, 0.000000000000000000, -1.000000000000000000 ) ) ;
#248 = AXIS2_PLACEMENT_3D ( 'NONE', #43, #381, #275 ) ;
#249 = DIRECTION ( 'NONE',  ( -3.491481338843133355E-15, 0.000000000000000000, -1.000000000000000000 ) ) ;
#250 = DIRECTION ( 'NONE',  ( 3.491481338843133355E-15, -0.000000000000000000, 1.000000000000000000 ) ) ;
#251 = FACE_OUTER_BOUND ( 'NONE', #306, .T. ) ;
#252 = EDGE_LOOP ( 'NONE', ( #380 ) ) ;
#253 = CARTESIAN_POINT ( 'NONE',  ( 0.000000000000000000, 0.000000000000000000, 0.000000000000000000 ) ) ;
#254 = DIRECTION ( 'NONE',  ( 3.491481338843133355E-15, -0.000000000000000000, 1.000000000000000000 ) ) ;
#255 = ORIENTED_EDGE ( 'NONE', *, *, #240, .F. ) ;
#256 = EDGE_CURVE ( 'NONE', #85, #85, #204, .T. ) ;
#257 = CARTESIAN_POINT ( 'NONE',  ( 1.326762908760390423E-13, 1.199999999999993516, 38.00000000000000000 ) ) ;
#258 = EDGE_LOOP ( 'NONE', ( #320 ) ) ;
#259 = PERSON_AND_ORGANIZATION ( #270, #279 ) ;
#260 = ORIENTED_EDGE ( 'NONE', *, *, #358, .T. ) ;
#261 = EDGE_CURVE ( 'NONE', #297, #297, #206, .T. ) ;
#262 = AXIS2_PLACEMENT_3D ( 'NONE', #313, #41, #378 ) ;
#263 = DIRECTION ( 'NONE',  ( 1.000000000000000000, 0.000000000000000000, 0.000000000000000000 ) ) ;
#264 = PERSON_AND_ORGANIZATION_ROLE ( 'creator' ) ;
#265 = CYLINDRICAL_SURFACE ( 'NONE', #287, 0.4929274057836297573 ) ;
#266 = CC_DESIGN_PERSON_AND_ORGANIZATION_ASSIGNMENT ( #56, #389, ( #114 ) ) ;
#267 = FACE_OUTER_BOUND ( 'NONE', #133, .T. ) ;
#268 = MANIFOLD_SOLID_BREP ( 'Corps-Déplacer/Copier1', #226 ) ;
#269 = AXIS2_PLACEMENT_3D ( 'NONE', #15, #108, #349 ) ;
#270 = PERSON ( 'UNSPECIFIED', 'UNSPECIFIED', 'UNSPECIFIED', ('UNSPECIFIED'), ('UNSPECIFIED'), ('UNSPECIFIED') ) ;
#271 = DIRECTION ( 'NONE',  ( 1.000000000000000000, 0.000000000000000000, 0.000000000000000000 ) ) ;
#272 = LOCAL_TIME ( 10, 29, 49.00000000000000000, #392 ) ;
#273 = ORIENTED_EDGE ( 'NONE', *, *, #256, .F. ) ;
#274 = ADVANCED_FACE ( 'NONE', ( #170, #94 ), #321, .T. ) ;
#275 = DIRECTION ( 'NONE',  ( 1.000000000000000000, 0.000000000000000000, -3.519227082168491783E-15 ) ) ;
#276 = PLANE ( 'NONE',  #337 ) ;
#277 = CIRCLE ( 'NONE', #65, 0.4199999999999999845 ) ;
#278 = VERTEX_POINT ( 'NONE', #9 ) ;
#279 = ORGANIZATION ( 'UNSPECIFIED', 'UNSPECIFIED', '' ) ;
#280 = DIRECTION ( 'NONE',  ( 3.491481338843133355E-15, -0.000000000000000000, 1.000000000000000000 ) ) ;
#281 = ORIENTED_EDGE ( 'NONE', *, *, #102, .T. ) ;
#282 = CARTESIAN_POINT ( 'NONE',  ( 2.291284628615796404E-15, 0.000000000000000000, 0.6562499999999971134 ) ) ;
#283 = DIRECTION ( 'NONE',  ( 3.491481338843133355E-15, -0.000000000000000000, 1.000000000000000000 ) ) ;
#284 = ADVANCED_FACE ( 'NONE', ( #267, #147 ), #365, .T. ) ;
#285 = CARTESIAN_POINT ( 'NONE',  ( -7.803947510912077066E-34, 0.000000000000000000, -2.235139401746833962E-19 ) ) ;
#286 = AXIS2_PLACEMENT_3D ( 'NONE', #223, #159, #385 ) ;
#287 = AXIS2_PLACEMENT_3D ( 'NONE', #323, #84, #89 ) ;
#288 = APPROVAL ( #24, 'UNSPECIFIED' ) ;
#289 = FACE_OUTER_BOUND ( 'NONE', #153, .T. ) ;
#290 = LOCAL_TIME ( 10, 29, 49.00000000000000000, #169 ) ;
#291 = DIRECTION ( 'NONE',  ( 1.000000000000000000, 0.000000000000000000, -3.510007033226453485E-15 ) ) ;
#292 = ORIENTED_EDGE ( 'NONE', *, *, #59, .T. ) ;
#293 = CC_DESIGN_PERSON_AND_ORGANIZATION_ASSIGNMENT ( #113, #176, ( #92 ) ) ;
#294 = CALENDAR_DATE ( 2023, 27, 9 ) ;
#295 =( NAMED_UNIT ( * ) SI_UNIT ( $, .STERADIAN. ) SOLID_ANGLE_UNIT ( ) );
#296 = DIRECTION ( 'NONE',  ( 3.491481338843133355E-15, -0.000000000000000000, 1.000000000000000000 ) ) ;
#297 = VERTEX_POINT ( 'NONE', #152 ) ;
#298 = ADVANCED_FACE ( 'NONE', ( #394, #331 ), #91, .F. ) ;
#299 = CARTESIAN_POINT ( 'NONE',  ( 0.000000000000000000, 0.000000000000000000, 0.000000000000000000 ) ) ;
#300 = AXIS2_PLACEMENT_3D ( 'NONE', #189, #8, #291 ) ;
#301 = AXIS2_PLACEMENT_3D ( 'NONE', #326, #225, #21 ) ;
#302 = DIRECTION ( 'NONE',  ( 3.491481338843133355E-15, -0.000000000000000000, 1.000000000000000000 ) ) ;
#303 = AXIS2_PLACEMENT_3D ( 'NONE', #238, #3, #126 ) ;
#304 = APPROVAL ( #117, 'UNSPECIFIED' ) ;
#305 = CIRCLE ( 'NONE', #78, 0.4929274057836297573 ) ;
#306 = EDGE_LOOP ( 'NONE', ( #101 ) ) ;
#307 = DIRECTION ( 'NONE',  ( -3.491481338843133355E-15, 0.000000000000000000, -1.000000000000000000 ) ) ;
#308 = CARTESIAN_POINT ( 'NONE',  ( 0.4200000000000136957, 0.000000000000000000, 4.099999999999997868 ) ) ;
#309 = CARTESIAN_POINT ( 'NONE',  ( 1.500000000000028866, 0.000000000000000000, 8.262267369761886471 ) ) ;
#310 = ORIENTED_EDGE ( 'NONE', *, *, #88, .T. ) ;
#311 = DIRECTION ( 'NONE',  ( 3.491481338843133355E-15, -0.000000000000000000, 1.000000000000000000 ) ) ;
#312 = ADVANCED_FACE ( 'NONE', ( #30, #90 ), #16, .T. ) ;
#313 = CARTESIAN_POINT ( 'NONE',  ( 1.883945139084117760E-15, 0.000000000000000000, 0.5395833333333364124 ) ) ;
#314 = EDGE_LOOP ( 'NONE', ( #273 ) ) ;
#315 = FACE_OUTER_BOUND ( 'NONE', #224, .T. ) ;
#316 = CARTESIAN_POINT ( 'NONE',  ( 6.619266704890104357E-16, 0.000000000000000000, 0.1895833333333332704 ) ) ;
#317 = DIRECTION ( 'NONE',  ( 1.000000000000000000, 0.000000000000000000, -3.820352656923314831E-15 ) ) ;
#318 = DIRECTION ( 'NONE',  ( 1.000000000000000000, 0.000000000000000000, -5.782411586589388010E-15 ) ) ;
#319 =( LENGTH_UNIT ( ) NAMED_UNIT ( * ) SI_UNIT ( .MILLI., .METRE. ) );
#320 = ORIENTED_EDGE ( 'NONE', *, *, #393, .T. ) ;
#321 = CONICAL_SURFACE ( 'NONE', #180, 1.499999999999996447, 0.7853981633974501664 ) ;
#322 = LOCAL_TIME ( 10, 29, 49.00000000000000000, #202 ) ;
#323 = CARTESIAN_POINT ( 'NONE',  ( 1.326762908760390423E-13, 0.000000000000000000, 38.00000000000000000 ) ) ;
#324 = ORIENTED_EDGE ( 'NONE', *, *, #183, .F. ) ;
#325 = CALENDAR_DATE ( 2023, 27, 9 ) ;
#326 = CARTESIAN_POINT ( 'NONE',  ( 1.521873535536946627E-14, 0.000000000000000000, 4.358819045102511502 ) ) ;
#327 = CIRCLE ( 'NONE', #151, 1.499999999999996447 ) ;
#328 = DIRECTION ( 'NONE',  ( -3.491481338843133355E-15, 0.000000000000000000, -1.000000000000000000 ) ) ;
#329 = CARTESIAN_POINT ( 'NONE',  ( 2.884755233805617762E-14, 0.000000000000000000, 8.262267369761891800 ) ) ;
#330 = MECHANICAL_CONTEXT ( 'NONE', #374, 'mechanical' ) ;
#331 = FACE_OUTER_BOUND ( 'NONE', #17, .T. ) ;
#332 = CONICAL_SURFACE ( 'NONE', #100, 0.4929274057836297573, 1.047197551196596299 ) ;
#333 = ADVANCED_FACE ( 'NONE', ( #368, #367 ), #93, .T. ) ;
#334 = DIRECTION ( 'NONE',  ( 1.000000000000000000, 0.000000000000000000, -3.469446951953614189E-15 ) ) ;
#335 = CIRCLE ( 'NONE', #49, 0.6949999999999998401 ) ;
#336 = UNCERTAINTY_MEASURE_WITH_UNIT (LENGTH_MEASURE( 1.000000000000000082E-05 ), #319, 'distance_accuracy_value', 'NONE');
#337 = AXIS2_PLACEMENT_3D ( 'NONE', #6, #247, #38 ) ;
#338 = DIRECTION ( 'NONE',  ( -1.000000000000000000, 0.000000000000000000, 4.625929269271496366E-15 ) ) ;
#339 = ADVANCED_FACE ( 'NONE', ( #315 ), #130, .F. ) ;
#340 = AXIS2_PLACEMENT_3D ( 'NONE', #395, #302, #241 ) ;
#341 = AXIS2_PLACEMENT_3D ( 'NONE', #257, #249, #129 ) ;
#342 = DIRECTION ( 'NONE',  ( 1.000000000000000000, 0.000000000000000000, 0.000000000000000000 ) ) ;
#343 = CARTESIAN_POINT ( 'NONE',  ( 0.6950000000000006173, 0.000000000000000000, 0.1895833333333308279 ) ) ;
#344 = ORIENTED_EDGE ( 'NONE', *, *, #358, .F. ) ;
#345 = FACE_OUTER_BOUND ( 'NONE', #109, .T. ) ;
#346 = EDGE_LOOP ( 'NONE', ( #260 ) ) ;
#347 = DESIGN_CONTEXT ( 'detailed design', #33, 'design' ) ;
#348 = ORIENTED_EDGE ( 'NONE', *, *, #256, .T. ) ;
#349 = DIRECTION ( 'NONE',  ( 1.000000000000000000, 0.000000000000000000, -4.625929269271490844E-15 ) ) ;
#350 = CARTESIAN_POINT ( 'NONE',  ( 1.326762908760390423E-13, 0.000000000000000000, 38.00000000000000000 ) ) ;
#351 = CARTESIAN_POINT ( 'NONE',  ( 0.4929274057836320333, 0.000000000000000000, 0.6562499999999953371 ) ) ;
#352 = EDGE_LOOP ( 'NONE', ( #310 ) ) ;
#353 = FACE_OUTER_BOUND ( 'NONE', #346, .T. ) ;
#354 = EDGE_LOOP ( 'NONE', ( #5 ) ) ;
#355 = APPLICATION_PROTOCOL_DEFINITION ( 'international standard', 'config_control_design', 1994, #374 ) ;
#356 = DIRECTION ( 'NONE',  ( -1.000000000000000000, 0.000000000000000000, 3.432006876932533006E-15 ) ) ;
#357 = DIRECTION ( 'NONE',  ( 0.000000000000000000, 0.000000000000000000, 1.000000000000000000 ) ) ;
#358 = EDGE_CURVE ( 'NONE', #58, #58, #207, .T. ) ;
#359 = APPROVAL_ROLE ( '' ) ;
#360 = AXIS2_PLACEMENT_3D ( 'NONE', #379, #105, #221 ) ;
#361 = CARTESIAN_POINT ( 'NONE',  ( 0.4171501829524911775, 0.000000000000000000, -1.456472079273622005E-15 ) ) ;
#362 = AXIS2_PLACEMENT_3D ( 'NONE', #253, #283, #64 ) ;
#363 = DATE_AND_TIME ( #231, #290 ) ;
#364 = CC_DESIGN_DATE_AND_TIME_ASSIGNMENT ( #52, #391, ( #125 ) ) ;
#365 = CYLINDRICAL_SURFACE ( 'NONE', #104, 0.6949999999999998401 ) ;
#366 = CC_DESIGN_PERSON_AND_ORGANIZATION_ASSIGNMENT ( #53, #387, ( #92 ) ) ;
#367 = FACE_OUTER_BOUND ( 'NONE', #138, .T. ) ;
#368 = FACE_OUTER_BOUND ( 'NONE', #128, .T. ) ;
#369 = CARTESIAN_POINT ( 'NONE',  ( 0.4929274057836307565, 0.000000000000000000, 0.3062499999999992450 ) ) ;
#370 = EDGE_LOOP ( 'NONE', ( #198 ) ) ;
#371 = APPROVAL_PERSON_ORGANIZATION ( #171, #288, #27 ) ;
#372 = VERTEX_POINT ( 'NONE', #63 ) ;
#373 = CARTESIAN_POINT ( 'NONE',  ( 1.326762908760390423E-13, 0.000000000000000000, 38.00000000000000000 ) ) ;
#374 = APPLICATION_CONTEXT ( 'configuration controlled 3d designs of mechanical parts and assemblies' ) ;
#375 = EDGE_CURVE ( 'NONE', #150, #150, #305, .T. ) ;
#376 = ORIENTED_EDGE ( 'NONE', *, *, #44, .T. ) ;
#377 = EDGE_LOOP ( 'NONE', ( #22 ) ) ;
#378 = DIRECTION ( 'NONE',  ( 1.000000000000000000, 0.000000000000000000, -3.432006876932533006E-15 ) ) ;
#379 = CARTESIAN_POINT ( 'NONE',  ( 6.619266704890104357E-16, 0.000000000000000000, 0.1895833333333332704 ) ) ;
#380 = ORIENTED_EDGE ( 'NONE', *, *, #261, .T. ) ;
#381 = DIRECTION ( 'NONE',  ( 3.491481338843133355E-15, -0.000000000000000000, 1.000000000000000000 ) ) ;
#382 = PRODUCT_DEFINITION ( 'UNKNOWN', '', #92, #347 ) ;
#383 = EDGE_LOOP ( 'NONE', ( #77 ) ) ;
#384 = SECURITY_CLASSIFICATION_LEVEL ( 'unclassified' ) ;
#385 = DIRECTION ( 'NONE',  ( 1.000000000000000000, 0.000000000000000000, -3.519227082168490994E-15 ) ) ;
#386 = ORIENTED_EDGE ( 'NONE', *, *, #32, .T. ) ;
#387 = PERSON_AND_ORGANIZATION_ROLE ( 'creator' ) ;
#388 = DIRECTION ( 'NONE',  ( 1.000000000000000000, 0.000000000000000000, -4.625929269271496366E-15 ) ) ;
#389 = PERSON_AND_ORGANIZATION_ROLE ( 'design_owner' ) ;
#390 = ADVANCED_FACE ( 'NONE', ( #161, #163 ), #219, .T. ) ;
#391 = DATE_TIME_ROLE ( 'classification_date' ) ;
#392 = COORDINATED_UNIVERSAL_TIME_OFFSET ( 1, 0, .AHEAD. ) ;
#393 = EDGE_CURVE ( 'NONE', #217, #217, #335, .T. ) ;
#394 = FACE_OUTER_BOUND ( 'NONE', #99, .T. ) ;
#395 = CARTESIAN_POINT ( 'NONE',  ( 0.000000000000000000, 0.000000000000000000, 0.000000000000000000 ) ) ;
ENDSEC;
END-ISO-10303-21;
