ISO-10303-21;
HEADER;
FILE_DESCRIPTION (( 'STEP AP203' ),
    '1' );
FILE_NAME ('960453.step',
    '2023-09-27T08:29:49',
    ( '' ),
    ( '' ),
    'SwSTEP 2.0',
    'SolidWorks 2022',
    '' );
FILE_SCHEMA (( 'CONFIG_CONTROL_DESIGN' ));
ENDSEC;

DATA;
#1 = FACE_BOUND ( 'NONE', #381, .T. ) ;
#2 = DIRECTION ( 'NONE',  ( 1.000000000000000000, 0.000000000000000000, 0.000000000000000000 ) ) ;
#3 = ADVANCED_FACE ( 'NONE', ( #387, #261 ), #157, .T. ) ;
#4 = CYLINDRICAL_SURFACE ( 'NONE', #234, 0.5949999999999999734 ) ;
#5 = CC_DESIGN_APPROVAL ( #183, ( #362 ) ) ;
#6 = APPROVAL_DATE_TIME ( #223, #295 ) ;
#7 = DIRECTION ( 'NONE',  ( -1.000000000000000000, 0.000000000000000000, 4.625929269271496366E-15 ) ) ;
#8 = FACE_OUTER_BOUND ( 'NONE', #384, .T. ) ;
#9 =( NAMED_UNIT ( * ) PLANE_ANGLE_UNIT ( ) SI_UNIT ( $, .RADIAN. ) );
#10 = EDGE_LOOP ( 'NONE', ( #164 ) ) ;
#11 = VERTEX_POINT ( 'NONE', #156 ) ;
#12 = VERTEX_POINT ( 'NONE', #126 ) ;
#13 = EDGE_LOOP ( 'NONE', ( #77 ) ) ;
#14 = AXIS2_PLACEMENT_3D ( 'NONE', #151, #121, #271 ) ;
#15 = CARTESIAN_POINT ( 'NONE',  ( 0.5950000000000005285, 0.000000000000000000, 0.1604166666666677343 ) ) ;
#16 = PRODUCT_DEFINITION_FORMATION_WITH_SPECIFIED_SOURCE ( 'ANY', '', #58, .NOT_KNOWN. ) ;
#17 = ORIENTED_EDGE ( 'NONE', *, *, #233, .F. ) ;
#18 = VERTEX_POINT ( 'NONE', #140 ) ;
#19 = VERTEX_POINT ( 'NONE', #48 ) ;
#20 = APPROVAL_DATE_TIME ( #355, #183 ) ;
#21 = CARTESIAN_POINT ( 'NONE',  ( 1.291848095371959973E-14, 0.000000000000000000, 3.700000000000001954 ) ) ;
#22 = LOCAL_TIME ( 10, 29, 49.00000000000000000, #53 ) ;
#23 = EDGE_LOOP ( 'NONE', ( #28 ) ) ;
#24 = DATE_AND_TIME ( #196, #389 ) ;
#25 = ADVANCED_FACE ( 'NONE', ( #142, #171 ), #388, .T. ) ;
#26 = FACE_OUTER_BOUND ( 'NONE', #162, .T. ) ;
#27 = PERSON_AND_ORGANIZATION ( #318, #81 ) ;
#28 = ORIENTED_EDGE ( 'NONE', *, *, #161, .F. ) ;
#29 = AXIS2_PLACEMENT_3D ( 'NONE', #89, #363, #37 ) ;
#30 = DIRECTION ( 'NONE',  ( 3.491481338843133355E-15, -0.000000000000000000, 1.000000000000000000 ) ) ;
#31 = ADVANCED_FACE ( 'NONE', ( #26, #358 ), #330, .T. ) ;
#32 = DIRECTION ( 'NONE',  ( 3.491481338843133355E-15, -0.000000000000000000, 1.000000000000000000 ) ) ;
#33 = FACE_OUTER_BOUND ( 'NONE', #288, .T. ) ;
#34 = FACE_OUTER_BOUND ( 'NONE', #52, .T. ) ;
#35 = AXIS2_PLACEMENT_3D ( 'NONE', #21, #385, #137 ) ;
#36 = APPROVAL_PERSON_ORGANIZATION ( #331, #183, #262 ) ;
#37 = DIRECTION ( 'NONE',  ( 1.000000000000000000, 0.000000000000000000, 0.000000000000000000 ) ) ;
#38 = CARTESIAN_POINT ( 'NONE',  ( 1.782110266701180152E-15, 0.000000000000000000, 0.5104166666666659635 ) ) ;
#39 = FACE_OUTER_BOUND ( 'NONE', #352, .T. ) ;
#40 = CARTESIAN_POINT ( 'NONE',  ( 0.5950000000000006395, 0.000000000000000000, 0.1895833333333311888 ) ) ;
#41 = ORIENTED_EDGE ( 'NONE', *, *, #350, .F. ) ;
#42 = AXIS2_PLACEMENT_3D ( 'NONE', #87, #391, #273 ) ;
#43 = CC_DESIGN_PERSON_AND_ORGANIZATION_ASSIGNMENT ( #189, #320, ( #58 ) ) ;
#44 = DIRECTION ( 'NONE',  ( 1.000000000000000000, 0.000000000000000000, -3.507712910982514647E-15 ) ) ;
#45 = DIRECTION ( 'NONE',  ( 1.000000000000000000, 0.000000000000000000, -3.469446951953614189E-15 ) ) ;
#46 = APPLICATION_PROTOCOL_DEFINITION ( 'international standard', 'config_control_design', 1994, #392 ) ;
#47 = ORIENTED_EDGE ( 'NONE', *, *, #177, .F. ) ;
#48 = CARTESIAN_POINT ( 'NONE',  ( 1.500000000000127898, 0.000000000000000000, 37.69999999999998863 ) ) ;
#49 = CC_DESIGN_PERSON_AND_ORGANIZATION_ASSIGNMENT ( #348, #71, ( #360 ) ) ;
#50 = AXIS2_PLACEMENT_3D ( 'NONE', #326, #113, #292 ) ;
#51 = DIRECTION ( 'NONE',  ( -3.491481338843133355E-15, 0.000000000000000000, -1.000000000000000000 ) ) ;
#52 = EDGE_LOOP ( 'NONE', ( #215 ) ) ;
#53 = COORDINATED_UNIVERSAL_TIME_OFFSET ( 1, 0, .AHEAD. ) ;
#54 = ORIENTED_EDGE ( 'NONE', *, *, #161, .T. ) ;
#55 = ADVANCED_FACE ( 'NONE', ( #267 ), #231, .F. ) ;
#56 = CIRCLE ( 'NONE', #277, 1.499999999999996447 ) ;
#57 = DIRECTION ( 'NONE',  ( 3.491481338843133355E-15, -0.000000000000000000, 1.000000000000000000 ) ) ;
#58 = PRODUCT ( '960453', '960453', '', ( #252 ) ) ;
#59 = FACE_BOUND ( 'NONE', #129, .T. ) ;
#60 = FACE_OUTER_BOUND ( 'NONE', #104, .T. ) ;
#61 = CIRCLE ( 'NONE', #35, 0.3199999999999995626 ) ;
#62 = CARTESIAN_POINT ( 'NONE',  ( 2.291284628615796404E-15, 0.000000000000000000, 0.6562499999999971134 ) ) ;
#63 = CARTESIAN_POINT ( 'NONE',  ( 1.069266160020712943E-15, 0.000000000000000000, 0.3062500000000009659 ) ) ;
#64 = EDGE_CURVE ( 'NONE', #11, #11, #61, .T. ) ;
#65 = DIRECTION ( 'NONE',  ( 3.491481338843133355E-15, -0.000000000000000000, 1.000000000000000000 ) ) ;
#66 = VERTEX_POINT ( 'NONE', #282 ) ;
#67 = CONICAL_SURFACE ( 'NONE', #253, 1.499999999999996447, 0.7853981633974501664 ) ;
#68 = CIRCLE ( 'NONE', #150, 0.5949999999999999734 ) ;
#69 = CARTESIAN_POINT ( 'NONE',  ( 0.3540741737109431297, 0.000000000000000000, 3.958819045102513368 ) ) ;
#70 = ORIENTED_EDGE ( 'NONE', *, *, #365, .F. ) ;
#71 = PERSON_AND_ORGANIZATION_ROLE ( 'creator' ) ;
#72 = FACE_OUTER_BOUND ( 'NONE', #82, .T. ) ;
#73 = MANIFOLD_SOLID_BREP ( 'Corps-Déplacer/Copier1', #393 ) ;
#74 = ORIENTED_EDGE ( 'NONE', *, *, #105, .T. ) ;
#75 = AXIS2_PLACEMENT_3D ( 'NONE', #222, #278, #124 ) ;
#76 = ORIENTED_EDGE ( 'NONE', *, *, #64, .F. ) ;
#77 = ORIENTED_EDGE ( 'NONE', *, *, #147, .F. ) ;
#78 = ORIENTED_EDGE ( 'NONE', *, *, #350, .T. ) ;
#79 = COORDINATED_UNIVERSAL_TIME_OFFSET ( 1, 0, .AHEAD. ) ;
#80 = AXIS2_PLACEMENT_3D ( 'NONE', #181, #117, #394 ) ;
#81 = ORGANIZATION ( 'UNSPECIFIED', 'UNSPECIFIED', '' ) ;
#82 = EDGE_LOOP ( 'NONE', ( #256 ) ) ;
#83 = DATE_TIME_ROLE ( 'classification_date' ) ;
#84 = ORIENTED_EDGE ( 'NONE', *, *, #136, .F. ) ;
#85 = PRODUCT_RELATED_PRODUCT_CATEGORY ( 'detail', '', ( #58 ) ) ;
#86 = AXIS2_PLACEMENT_3D ( 'NONE', #210, #340, #2 ) ;
#87 = CARTESIAN_POINT ( 'NONE',  ( 0.000000000000000000, 0.000000000000000000, 0.000000000000000000 ) ) ;
#88 = FACE_OUTER_BOUND ( 'NONE', #10, .T. ) ;
#89 = CARTESIAN_POINT ( 'NONE',  ( 1.326762908760390423E-13, 0.000000000000000000, 38.00000000000000000 ) ) ;
#90 = CIRCLE ( 'NONE', #304, 0.3929274057836295020 ) ;
#91 = CC_DESIGN_APPROVAL ( #295, ( #360 ) ) ;
#92 = DIRECTION ( 'NONE',  ( 3.491481338843133355E-15, -0.000000000000000000, 1.000000000000000000 ) ) ;
#93 = VERTEX_POINT ( 'NONE', #40 ) ;
#94 = EDGE_CURVE ( 'NONE', #251, #251, #90, .T. ) ;
#95 = CARTESIAN_POINT ( 'NONE',  ( 1.291848095371959341E-14, 0.000000000000000000, 3.700000000000000178 ) ) ;
#96 = EDGE_LOOP ( 'NONE', ( #70 ) ) ;
#97 = DIRECTION ( 'NONE',  ( 3.491481338843133355E-15, -0.000000000000000000, 1.000000000000000000 ) ) ;
#98 = CARTESIAN_POINT ( 'NONE',  ( 0.5950000000000017497, 0.000000000000000000, 0.5395833333333343029 ) ) ;
#99 = EDGE_LOOP ( 'NONE', ( #357 ) ) ;
#100 = AXIS2_PLACEMENT_3D ( 'NONE', #310, #132, #274 ) ;
#101 = LOCAL_TIME ( 10, 29, 49.00000000000000000, #79 ) ;
#102 = CARTESIAN_POINT ( 'NONE',  ( 0.3929274057836319445, 0.000000000000000000, 0.6999999999999978462 ) ) ;
#103 = FACE_OUTER_BOUND ( 'NONE', #127, .T. ) ;
#104 = EDGE_LOOP ( 'NONE', ( #265 ) ) ;
#105 = EDGE_CURVE ( 'NONE', #345, #345, #169, .T. ) ;
#106 = COORDINATED_UNIVERSAL_TIME_OFFSET ( 1, 0, .AHEAD. ) ;
#107 = AXIS2_PLACEMENT_3D ( 'NONE', #63, #97, #184 ) ;
#108 = CIRCLE ( 'NONE', #107, 0.3929274057836295575 ) ;
#109 =( GEOMETRIC_REPRESENTATION_CONTEXT ( 3 ) GLOBAL_UNCERTAINTY_ASSIGNED_CONTEXT ( ( #374 ) ) GLOBAL_UNIT_ASSIGNED_CONTEXT ( ( #212, #9, #285 ) ) REPRESENTATION_CONTEXT ( 'NONE', 'WORKASPACE' ) );
#110 = ADVANCED_FACE ( 'NONE', ( #312, #308 ), #359, .T. ) ;
#111 = ORIENTED_EDGE ( 'NONE', *, *, #94, .F. ) ;
#112 = SHAPE_DEFINITION_REPRESENTATION ( #293, #143 ) ;
#113 = DIRECTION ( 'NONE',  ( 3.491481338843133355E-15, -0.000000000000000000, 1.000000000000000000 ) ) ;
#114 = PERSON_AND_ORGANIZATION_ROLE ( 'creator' ) ;
#115 = CIRCLE ( 'NONE', #260, 0.3200000000000000067 ) ;
#116 = ORIENTED_EDGE ( 'NONE', *, *, #390, .F. ) ;
#117 = DIRECTION ( 'NONE',  ( 3.491481338843133355E-15, -0.000000000000000000, 1.000000000000000000 ) ) ;
#118 = CARTESIAN_POINT ( 'NONE',  ( 5.600917981060968883E-16, 0.000000000000000000, 0.1604166666666698160 ) ) ;
#119 = CIRCLE ( 'NONE', #376, 0.5949999999999999734 ) ;
#120 = AXIS2_PLACEMENT_3D ( 'NONE', #130, #314, #45 ) ;
#121 = DIRECTION ( 'NONE',  ( 3.491481338843133355E-15, -0.000000000000000000, 1.000000000000000000 ) ) ;
#122 = DIRECTION ( 'NONE',  ( 3.491481338843133355E-15, -0.000000000000000000, 1.000000000000000000 ) ) ;
#123 = ADVANCED_FACE ( 'NONE', ( #269, #88 ), #204, .F. ) ;
#124 = DIRECTION ( 'NONE',  ( -1.000000000000000000, 0.000000000000000000, 3.507712910982514647E-15 ) ) ;
#125 = FACE_BOUND ( 'NONE', #344, .T. ) ;
#126 = CARTESIAN_POINT ( 'NONE',  ( 1.500000000000028866, 0.000000000000000000, 8.235472450518784626 ) ) ;
#127 = EDGE_LOOP ( 'NONE', ( #167 ) ) ;
#128 = DIRECTION ( 'NONE',  ( -1.000000000000000000, 0.000000000000000000, 3.491481338843133355E-15 ) ) ;
#129 = EDGE_LOOP ( 'NONE', ( #202 ) ) ;
#130 = CARTESIAN_POINT ( 'NONE',  ( 2.875399837754308337E-14, 0.000000000000000000, 8.235472450518789955 ) ) ;
#131 = AXIS2_PLACEMENT_3D ( 'NONE', #178, #237, #211 ) ;
#132 = DIRECTION ( 'NONE',  ( 3.491481338843133355E-15, -0.000000000000000000, 1.000000000000000000 ) ) ;
#133 = CARTESIAN_POINT ( 'NONE',  ( 1.200000000000126299, 0.000000000000000000, 37.99999999999999289 ) ) ;
#134 = EDGE_LOOP ( 'NONE', ( #74 ) ) ;
#135 = EDGE_LOOP ( 'NONE', ( #54 ) ) ;
#136 = EDGE_CURVE ( 'NONE', #379, #379, #339, .T. ) ;
#137 = DIRECTION ( 'NONE',  ( 1.000000000000000000, 0.000000000000000000, -4.065758146820647150E-15 ) ) ;
#138 = CIRCLE ( 'NONE', #356, 0.5949999999999999734 ) ;
#139 = CARTESIAN_POINT ( 'NONE',  ( 7.514088172427960507E-34, 0.000000000000000000, 2.152120387651184361E-19 ) ) ;
#140 = CARTESIAN_POINT ( 'NONE',  ( 0.3929274057836309453, 0.000000000000000000, 0.3937499999999969358 ) ) ;
#141 = PERSON_AND_ORGANIZATION ( #318, #81 ) ;
#142 = FACE_OUTER_BOUND ( 'NONE', #96, .T. ) ;
#143 = ADVANCED_BREP_SHAPE_REPRESENTATION ( '960453', ( #73, #305 ), #109 ) ;
#144 = SECURITY_CLASSIFICATION_LEVEL ( 'unclassified' ) ;
#145 = CIRCLE ( 'NONE', #131, 0.3929274057836295575 ) ;
#146 = DIRECTION ( 'NONE',  ( 1.000000000000000000, 0.000000000000000000, 0.000000000000000000 ) ) ;
#147 = EDGE_CURVE ( 'NONE', #284, #284, #324, .T. ) ;
#148 = CARTESIAN_POINT ( 'NONE',  ( 1.883945139084117760E-15, 0.000000000000000000, 0.5395833333333364124 ) ) ;
#149 = CONICAL_SURFACE ( 'NONE', #75, 0.5949999999999999734, 1.047197551196596743 ) ;
#150 = AXIS2_PLACEMENT_3D ( 'NONE', #217, #343, #44 ) ;
#151 = CARTESIAN_POINT ( 'NONE',  ( 1.326762908760390423E-13, 0.000000000000000000, 38.00000000000000000 ) ) ;
#152 = DIRECTION ( 'NONE',  ( -3.491481338843133355E-15, 0.000000000000000000, -1.000000000000000000 ) ) ;
#153 = FACE_OUTER_BOUND ( 'NONE', #258, .T. ) ;
#154 = DIRECTION ( 'NONE',  ( 3.491481338843133355E-15, -0.000000000000000000, 1.000000000000000000 ) ) ;
#155 = CC_DESIGN_PERSON_AND_ORGANIZATION_ASSIGNMENT ( #259, #201, ( #362 ) ) ;
#156 = CARTESIAN_POINT ( 'NONE',  ( 0.3200000000000124412, 0.000000000000000000, 3.700000000000000622 ) ) ;
#157 = CONICAL_SURFACE ( 'NONE', #195, 0.5949999999999999734, 1.047197551196622500 ) ;
#158 = PLANE ( 'NONE',  #175 ) ;
#159 = CARTESIAN_POINT ( 'NONE',  ( 0.000000000000000000, 0.000000000000000000, 0.000000000000000000 ) ) ;
#160 = DIRECTION ( 'NONE',  ( 3.491481338843133355E-15, -0.000000000000000000, 1.000000000000000000 ) ) ;
#161 = EDGE_CURVE ( 'NONE', #18, #18, #145, .T. ) ;
#162 = EDGE_LOOP ( 'NONE', ( #76 ) ) ;
#163 = CARTESIAN_POINT ( 'NONE',  ( 0.3171501829524910332, 0.000000000000000000, -1.107323945389308078E-15 ) ) ;
#164 = ORIENTED_EDGE ( 'NONE', *, *, #94, .T. ) ;
#165 = AXIS2_PLACEMENT_3D ( 'NONE', #139, #298, #351 ) ;
#166 = EDGE_LOOP ( 'NONE', ( #347 ) ) ;
#167 = ORIENTED_EDGE ( 'NONE', *, *, #105, .F. ) ;
#168 = DATE_AND_TIME ( #172, #287 ) ;
#169 = CIRCLE ( 'NONE', #395, 0.3540741737109293075 ) ;
#170 = DATE_TIME_ROLE ( 'creation_date' ) ;
#171 = FACE_BOUND ( 'NONE', #134, .T. ) ;
#172 = CALENDAR_DATE ( 2023, 27, 9 ) ;
#173 = ADVANCED_FACE ( 'NONE', ( #39, #33 ), #208, .T. ) ;
#174 = EDGE_LOOP ( 'NONE', ( #283 ) ) ;
#175 = AXIS2_PLACEMENT_3D ( 'NONE', #315, #319, #128 ) ;
#176 = CARTESIAN_POINT ( 'NONE',  ( 2.444036937190193349E-15, 0.3929274057836295020, 0.6999999999999999556 ) ) ;
#177 = EDGE_CURVE ( 'NONE', #200, #200, #180, .T. ) ;
#178 = CARTESIAN_POINT ( 'NONE',  ( 1.374770777169477842E-15, 0.000000000000000000, 0.3937499999999982681 ) ) ;
#179 = DIRECTION ( 'NONE',  ( 1.000000000000000000, 0.000000000000000000, -2.449661122972862797E-15 ) ) ;
#180 = CIRCLE ( 'NONE', #286, 0.3929274057836295575 ) ;
#181 = CARTESIAN_POINT ( 'NONE',  ( 1.326762908760390423E-13, 0.000000000000000000, 38.00000000000000000 ) ) ;
#182 = FACE_OUTER_BOUND ( 'NONE', #174, .T. ) ;
#183 = APPROVAL ( #297, 'UNSPECIFIED' ) ;
#184 = DIRECTION ( 'NONE',  ( 1.000000000000000000, 0.000000000000000000, -3.449117306806457569E-15 ) ) ;
#185 = EDGE_LOOP ( 'NONE', ( #47 ) ) ;
#186 = DIRECTION ( 'NONE',  ( 1.000000000000000000, 0.000000000000000000, -3.462158197852871451E-15 ) ) ;
#187 = CALENDAR_DATE ( 2023, 27, 9 ) ;
#188 = CYLINDRICAL_SURFACE ( 'NONE', #228, 1.499999999999998224 ) ;
#189 = PERSON_AND_ORGANIZATION ( #318, #81 ) ;
#190 = ORIENTED_EDGE ( 'NONE', *, *, #177, .T. ) ;
#191 = CARTESIAN_POINT ( 'NONE',  ( 0.3929274057836318335, 0.000000000000000000, 0.6562499999999956701 ) ) ;
#192 = COORDINATED_UNIVERSAL_TIME_OFFSET ( 1, 0, .AHEAD. ) ;
#193 = EDGE_CURVE ( 'NONE', #322, #322, #115, .T. ) ;
#194 = ORIENTED_EDGE ( 'NONE', *, *, #233, .T. ) ;
#195 = AXIS2_PLACEMENT_3D ( 'NONE', #334, #51, #235 ) ;
#196 = CALENDAR_DATE ( 2023, 27, 9 ) ;
#197 = DIRECTION ( 'NONE',  ( 1.000000000000000000, 0.000000000000000000, -3.449117306806457569E-15 ) ) ;
#198 = CARTESIAN_POINT ( 'NONE',  ( 2.444036937190190588E-15, 0.000000000000000000, 0.6999999999999992895 ) ) ;
#199 = APPLICATION_CONTEXT ( 'configuration controlled 3d designs of mechanical parts and assemblies' ) ;
#200 = VERTEX_POINT ( 'NONE', #191 ) ;
#201 = PERSON_AND_ORGANIZATION_ROLE ( 'classification_officer' ) ;
#202 = ORIENTED_EDGE ( 'NONE', *, *, #136, .T. ) ;
#203 = EDGE_LOOP ( 'NONE', ( #78 ) ) ;
#204 = PLANE ( 'NONE',  #206 ) ;
#205 = EDGE_CURVE ( 'NONE', #382, #382, #138, .T. ) ;
#206 = AXIS2_PLACEMENT_3D ( 'NONE', #176, #152, #268 ) ;
#207 = DIRECTION ( 'NONE',  ( 1.000000000000000000, 0.000000000000000000, -3.388131789017201356E-15 ) ) ;
#208 = CYLINDRICAL_SURFACE ( 'NONE', #86, 0.3929274057836295020 ) ;
#209 = FACE_OUTER_BOUND ( 'NONE', #13, .T. ) ;
#210 = CARTESIAN_POINT ( 'NONE',  ( 1.326762908760390423E-13, 0.000000000000000000, 38.00000000000000000 ) ) ;
#211 = DIRECTION ( 'NONE',  ( 1.000000000000000000, 0.000000000000000000, -3.449117306806457569E-15 ) ) ;
#212 =( LENGTH_UNIT ( ) NAMED_UNIT ( * ) SI_UNIT ( .MILLI., .METRE. ) );
#213 = DIRECTION ( 'NONE',  ( 3.491481338843133355E-15, -0.000000000000000000, 1.000000000000000000 ) ) ;
#214 = CARTESIAN_POINT ( 'NONE',  ( 1.316288464743861212E-13, 0.000000000000000000, 37.69999999999999574 ) ) ;
#215 = ORIENTED_EDGE ( 'NONE', *, *, #205, .F. ) ;
#216 = ADVANCED_FACE ( 'NONE', ( #34, #60 ), #242, .T. ) ;
#217 = CARTESIAN_POINT ( 'NONE',  ( 6.619266704890104357E-16, 0.000000000000000000, 0.1895833333333332704 ) ) ;
#218 = DIRECTION ( 'NONE',  ( 0.000000000000000000, 0.000000000000000000, 1.000000000000000000 ) ) ;
#219 = AXIS2_PLACEMENT_3D ( 'NONE', #118, #306, #238 ) ;
#220 = DESIGN_CONTEXT ( 'detailed design', #392, 'design' ) ;
#221 = EDGE_LOOP ( 'NONE', ( #227 ) ) ;
#222 = CARTESIAN_POINT ( 'NONE',  ( 6.619266704890104357E-16, 0.000000000000000000, 0.1895833333333332704 ) ) ;
#223 = DATE_AND_TIME ( #187, #335 ) ;
#224 = EDGE_LOOP ( 'NONE', ( #263 ) ) ;
#225 = CARTESIAN_POINT ( 'NONE',  ( 0.3200000000000024492, 0.000000000000000000, 0.6999999999999981792 ) ) ;
#226 = CC_DESIGN_DATE_AND_TIME_ASSIGNMENT ( #168, #170, ( #360 ) ) ;
#227 = ORIENTED_EDGE ( 'NONE', *, *, #325, .T. ) ;
#228 = AXIS2_PLACEMENT_3D ( 'NONE', #245, #92, #254 ) ;
#229 = CC_DESIGN_APPROVAL ( #369, ( #16 ) ) ;
#230 = APPROVAL_DATE_TIME ( #24, #369 ) ;
#231 = PLANE ( 'NONE',  #165 ) ;
#232 = PERSON_AND_ORGANIZATION ( #318, #81 ) ;
#233 = EDGE_CURVE ( 'NONE', #373, #373, #361, .T. ) ;
#234 = AXIS2_PLACEMENT_3D ( 'NONE', #368, #160, #311 ) ;
#235 = DIRECTION ( 'NONE',  ( -1.000000000000000000, 0.000000000000000000, 3.462158197852871451E-15 ) ) ;
#236 = ADVANCED_FACE ( 'NONE', ( #1, #240 ), #67, .T. ) ;
#237 = DIRECTION ( 'NONE',  ( 3.491481338843133355E-15, -0.000000000000000000, 1.000000000000000000 ) ) ;
#238 = DIRECTION ( 'NONE',  ( 1.000000000000000000, 0.000000000000000000, -3.507712910982514647E-15 ) ) ;
#239 = TOROIDAL_SURFACE ( 'NONE', #266, 1.319999999999999618, 1.000000000000000000 ) ;
#240 = FACE_OUTER_BOUND ( 'NONE', #221, .T. ) ;
#241 = ADVANCED_FACE ( 'NONE', ( #103, #346 ), #239, .F. ) ;
#242 = CYLINDRICAL_SURFACE ( 'NONE', #80, 0.5949999999999999734 ) ;
#243 = APPLICATION_PROTOCOL_DEFINITION ( 'international standard', 'config_control_design', 1994, #199 ) ;
#244 = AXIS2_PLACEMENT_3D ( 'NONE', #291, #332, #197 ) ;
#245 = CARTESIAN_POINT ( 'NONE',  ( 1.326762908760390423E-13, 0.000000000000000000, 38.00000000000000000 ) ) ;
#246 = APPROVAL_ROLE ( '' ) ;
#247 = ADVANCED_FACE ( 'NONE', ( #72, #371 ), #367, .T. ) ;
#248 = EDGE_LOOP ( 'NONE', ( #250 ) ) ;
#249 = DIRECTION ( 'NONE',  ( 3.491481338843133355E-15, -0.000000000000000000, 1.000000000000000000 ) ) ;
#250 = ORIENTED_EDGE ( 'NONE', *, *, #390, .T. ) ;
#251 = VERTEX_POINT ( 'NONE', #102 ) ;
#252 = MECHANICAL_CONTEXT ( 'NONE', #199, 'mechanical' ) ;
#253 = AXIS2_PLACEMENT_3D ( 'NONE', #214, #378, #7 ) ;
#254 = DIRECTION ( 'NONE',  ( 1.000000000000000000, 0.000000000000000000, -4.625929269271490844E-15 ) ) ;
#255 = PERSON_AND_ORGANIZATION ( #318, #81 ) ;
#256 = ORIENTED_EDGE ( 'NONE', *, *, #289, .F. ) ;
#257 = CC_DESIGN_DATE_AND_TIME_ASSIGNMENT ( #264, #83, ( #362 ) ) ;
#258 = EDGE_LOOP ( 'NONE', ( #300 ) ) ;
#259 = PERSON_AND_ORGANIZATION ( #318, #81 ) ;
#260 = AXIS2_PLACEMENT_3D ( 'NONE', #337, #154, #207 ) ;
#261 = FACE_OUTER_BOUND ( 'NONE', #224, .T. ) ;
#262 = APPROVAL_ROLE ( '' ) ;
#263 = ORIENTED_EDGE ( 'NONE', *, *, #205, .T. ) ;
#264 = DATE_AND_TIME ( #327, #22 ) ;
#265 = ORIENTED_EDGE ( 'NONE', *, *, #289, .T. ) ;
#266 = AXIS2_PLACEMENT_3D ( 'NONE', #95, #213, #342 ) ;
#267 = FACE_OUTER_BOUND ( 'NONE', #296, .T. ) ;
#268 = DIRECTION ( 'NONE',  ( -1.000000000000000000, 0.000000000000000000, 3.491481338843133355E-15 ) ) ;
#269 = FACE_BOUND ( 'NONE', #99, .T. ) ;
#270 = CONICAL_SURFACE ( 'NONE', #100, 0.3171501829524910332, 1.047197551196591636 ) ;
#271 = DIRECTION ( 'NONE',  ( 1.000000000000000000, 0.000000000000000000, -5.782411586589388010E-15 ) ) ;
#272 = ADVANCED_FACE ( 'NONE', ( #209, #59 ), #270, .T. ) ;
#273 = DIRECTION ( 'NONE',  ( 1.000000000000000000, 0.000000000000000000, -3.491481338843133355E-15 ) ) ;
#274 = DIRECTION ( 'NONE',  ( 1.000000000000000000, 0.000000000000000000, -3.491481338843133355E-15 ) ) ;
#275 = DIRECTION ( 'NONE',  ( 1.000000000000000000, 0.000000000000000000, -3.587081999078715714E-15 ) ) ;
#276 = ADVANCED_FACE ( 'NONE', ( #125, #281 ), #149, .T. ) ;
#277 = AXIS2_PLACEMENT_3D ( 'NONE', #370, #249, #372 ) ;
#278 = DIRECTION ( 'NONE',  ( -3.491481338843133355E-15, 0.000000000000000000, -1.000000000000000000 ) ) ;
#279 = VERTEX_POINT ( 'NONE', #290 ) ;
#280 = ORIENTED_EDGE ( 'NONE', *, *, #193, .T. ) ;
#281 = FACE_OUTER_BOUND ( 'NONE', #248, .T. ) ;
#282 = CARTESIAN_POINT ( 'NONE',  ( 0.3929274057836306677, 0.000000000000000000, 0.3062499999999996336 ) ) ;
#283 = ORIENTED_EDGE ( 'NONE', *, *, #147, .T. ) ;
#284 = VERTEX_POINT ( 'NONE', #15 ) ;
#285 =( NAMED_UNIT ( * ) SI_UNIT ( $, .STERADIAN. ) SOLID_ANGLE_UNIT ( ) );
#286 = AXIS2_PLACEMENT_3D ( 'NONE', #62, #122, #275 ) ;
#287 = LOCAL_TIME ( 10, 29, 49.00000000000000000, #192 ) ;
#288 = EDGE_LOOP ( 'NONE', ( #190 ) ) ;
#289 = EDGE_CURVE ( 'NONE', #279, #279, #119, .T. ) ;
#290 = CARTESIAN_POINT ( 'NONE',  ( 0.5950000000000016387, 0.000000000000000000, 0.5104166666666638541 ) ) ;
#291 = CARTESIAN_POINT ( 'NONE',  ( 1.374770777169477842E-15, 0.000000000000000000, 0.3937499999999982681 ) ) ;
#292 = DIRECTION ( 'NONE',  ( 1.000000000000000000, 0.000000000000000000, -2.449661122972862797E-15 ) ) ;
#293 = PRODUCT_DEFINITION_SHAPE ( 'NONE', 'NONE',  #360 ) ;
#294 = APPROVAL_STATUS ( 'not_yet_approved' ) ;
#295 = APPROVAL ( #380, 'UNSPECIFIED' ) ;
#296 = EDGE_LOOP ( 'NONE', ( #84 ) ) ;
#297 = APPROVAL_STATUS ( 'not_yet_approved' ) ;
#298 = DIRECTION ( 'NONE',  ( 3.491481338843133355E-15, -0.000000000000000000, 1.000000000000000000 ) ) ;
#299 = APPROVAL_ROLE ( '' ) ;
#300 = ORIENTED_EDGE ( 'NONE', *, *, #325, .F. ) ;
#301 = PERSON_AND_ORGANIZATION_ROLE ( 'design_supplier' ) ;
#302 = CARTESIAN_POINT ( 'NONE',  ( 1.326762908760390423E-13, 0.000000000000000000, 38.00000000000000000 ) ) ;
#303 = CC_DESIGN_PERSON_AND_ORGANIZATION_ASSIGNMENT ( #141, #301, ( #16 ) ) ;
#304 = AXIS2_PLACEMENT_3D ( 'NONE', #198, #364, #338 ) ;
#305 = AXIS2_PLACEMENT_3D ( 'NONE', #159, #218, #323 ) ;
#306 = DIRECTION ( 'NONE',  ( 3.491481338843133355E-15, -0.000000000000000000, 1.000000000000000000 ) ) ;
#307 = ADVANCED_FACE ( 'NONE', ( #316, #182 ), #4, .T. ) ;
#308 = FACE_OUTER_BOUND ( 'NONE', #203, .T. ) ;
#309 = APPROVAL_PERSON_ORGANIZATION ( #255, #295, #246 ) ;
#310 = CARTESIAN_POINT ( 'NONE',  ( 0.000000000000000000, 0.000000000000000000, 0.000000000000000000 ) ) ;
#311 = DIRECTION ( 'NONE',  ( 1.000000000000000000, 0.000000000000000000, 0.000000000000000000 ) ) ;
#312 = FACE_OUTER_BOUND ( 'NONE', #23, .T. ) ;
#313 = ADVANCED_FACE ( 'NONE', ( #153, #8 ), #188, .T. ) ;
#314 = DIRECTION ( 'NONE',  ( 3.491481338843133355E-15, -0.000000000000000000, 1.000000000000000000 ) ) ;
#315 = CARTESIAN_POINT ( 'NONE',  ( 1.326762908760390423E-13, 1.199999999999993516, 38.00000000000000000 ) ) ;
#316 = FACE_OUTER_BOUND ( 'NONE', #375, .T. ) ;
#317 = ORIENTED_EDGE ( 'NONE', *, *, #365, .T. ) ;
#318 = PERSON ( 'UNSPECIFIED', 'UNSPECIFIED', 'UNSPECIFIED', ('UNSPECIFIED'), ('UNSPECIFIED'), ('UNSPECIFIED') ) ;
#319 = DIRECTION ( 'NONE',  ( -3.491481338843133355E-15, 0.000000000000000000, -1.000000000000000000 ) ) ;
#320 = PERSON_AND_ORGANIZATION_ROLE ( 'design_owner' ) ;
#321 = ADVANCED_FACE ( 'NONE', ( #341 ), #158, .F. ) ;
#322 = VERTEX_POINT ( 'NONE', #225 ) ;
#323 = DIRECTION ( 'NONE',  ( 1.000000000000000000, 0.000000000000000000, 0.000000000000000000 ) ) ;
#324 = CIRCLE ( 'NONE', #219, 0.5949999999999999734 ) ;
#325 = EDGE_CURVE ( 'NONE', #19, #19, #56, .T. ) ;
#326 = CARTESIAN_POINT ( 'NONE',  ( 1.382214281983222082E-14, 0.000000000000000000, 3.958819045102514256 ) ) ;
#327 = CALENDAR_DATE ( 2023, 27, 9 ) ;
#328 = EDGE_LOOP ( 'NONE', ( #280 ) ) ;
#329 = CIRCLE ( 'NONE', #120, 1.500000000000000000 ) ;
#330 = CYLINDRICAL_SURFACE ( 'NONE', #383, 0.3199999999999997291 ) ;
#331 = PERSON_AND_ORGANIZATION ( #318, #81 ) ;
#332 = DIRECTION ( 'NONE',  ( 3.491481338843133355E-15, -0.000000000000000000, 1.000000000000000000 ) ) ;
#333 = CC_DESIGN_PERSON_AND_ORGANIZATION_ASSIGNMENT ( #27, #114, ( #16 ) ) ;
#334 = CARTESIAN_POINT ( 'NONE',  ( 1.883945139084117760E-15, 0.000000000000000000, 0.5395833333333364124 ) ) ;
#335 = LOCAL_TIME ( 10, 29, 49.00000000000000000, #106 ) ;
#336 = DIRECTION ( 'NONE',  ( 1.000000000000000000, 0.000000000000000000, -3.462158197852871451E-15 ) ) ;
#337 = CARTESIAN_POINT ( 'NONE',  ( 2.444036937190190588E-15, 0.000000000000000000, 0.6999999999999992895 ) ) ;
#338 = DIRECTION ( 'NONE',  ( 1.000000000000000000, 0.000000000000000000, -3.587081999078716503E-15 ) ) ;
#339 = CIRCLE ( 'NONE', #42, 0.3171501829524910332 ) ;
#340 = DIRECTION ( 'NONE',  ( 3.491481338843133355E-15, -0.000000000000000000, 1.000000000000000000 ) ) ;
#341 = FACE_OUTER_BOUND ( 'NONE', #354, .T. ) ;
#342 = DIRECTION ( 'NONE',  ( 1.000000000000000000, 0.000000000000000000, -3.491481338843133355E-15 ) ) ;
#343 = DIRECTION ( 'NONE',  ( 3.491481338843133355E-15, -0.000000000000000000, 1.000000000000000000 ) ) ;
#344 = EDGE_LOOP ( 'NONE', ( #41 ) ) ;
#345 = VERTEX_POINT ( 'NONE', #69 ) ;
#346 = FACE_OUTER_BOUND ( 'NONE', #166, .T. ) ;
#347 = ORIENTED_EDGE ( 'NONE', *, *, #64, .T. ) ;
#348 = PERSON_AND_ORGANIZATION ( #318, #81 ) ;
#349 = APPROVAL_PERSON_ORGANIZATION ( #232, #369, #299 ) ;
#350 = EDGE_CURVE ( 'NONE', #66, #66, #108, .T. ) ;
#351 = DIRECTION ( 'NONE',  ( 1.000000000000000000, 0.000000000000000000, -3.491481338843133355E-15 ) ) ;
#352 = EDGE_LOOP ( 'NONE', ( #111 ) ) ;
#353 = COORDINATED_UNIVERSAL_TIME_OFFSET ( 1, 0, .AHEAD. ) ;
#354 = EDGE_LOOP ( 'NONE', ( #194 ) ) ;
#355 = DATE_AND_TIME ( #386, #101 ) ;
#356 = AXIS2_PLACEMENT_3D ( 'NONE', #148, #57, #336 ) ;
#357 = ORIENTED_EDGE ( 'NONE', *, *, #193, .F. ) ;
#358 = FACE_OUTER_BOUND ( 'NONE', #328, .T. ) ;
#359 = CYLINDRICAL_SURFACE ( 'NONE', #29, 0.3929274057836295575 ) ;
#360 = PRODUCT_DEFINITION ( 'UNKNOWN', '', #16, #220 ) ;
#361 = CIRCLE ( 'NONE', #14, 1.199999999999993516 ) ;
#362 = SECURITY_CLASSIFICATION ( '', '', #144 ) ;
#363 = DIRECTION ( 'NONE',  ( 3.491481338843133355E-15, -0.000000000000000000, 1.000000000000000000 ) ) ;
#364 = DIRECTION ( 'NONE',  ( 3.491481338843133355E-15, -0.000000000000000000, 1.000000000000000000 ) ) ;
#365 = EDGE_CURVE ( 'NONE', #12, #12, #329, .T. ) ;
#366 = CARTESIAN_POINT ( 'NONE',  ( 1.382214281983222082E-14, 0.000000000000000000, 3.958819045102514256 ) ) ;
#367 = CONICAL_SURFACE ( 'NONE', #244, 0.3929274057836295575, 1.047197551196596743 ) ;
#368 = CARTESIAN_POINT ( 'NONE',  ( 1.326762908760390423E-13, 0.000000000000000000, 38.00000000000000000 ) ) ;
#369 = APPROVAL ( #294, 'UNSPECIFIED' ) ;
#370 = CARTESIAN_POINT ( 'NONE',  ( 1.316288464743861212E-13, 0.000000000000000000, 37.69999999999999574 ) ) ;
#371 = FACE_BOUND ( 'NONE', #135, .T. ) ;
#372 = DIRECTION ( 'NONE',  ( 1.000000000000000000, 0.000000000000000000, -4.625929269271496366E-15 ) ) ;
#373 = VERTEX_POINT ( 'NONE', #133 ) ;
#374 = UNCERTAINTY_MEASURE_WITH_UNIT (LENGTH_MEASURE( 1.000000000000000082E-05 ), #212, 'distance_accuracy_value', 'NONE');
#375 = EDGE_LOOP ( 'NONE', ( #116 ) ) ;
#376 = AXIS2_PLACEMENT_3D ( 'NONE', #38, #65, #186 ) ;
#377 = CC_DESIGN_SECURITY_CLASSIFICATION ( #362, ( #16 ) ) ;
#378 = DIRECTION ( 'NONE',  ( -3.491481338843133355E-15, 0.000000000000000000, -1.000000000000000000 ) ) ;
#379 = VERTEX_POINT ( 'NONE', #163 ) ;
#380 = APPROVAL_STATUS ( 'not_yet_approved' ) ;
#381 = EDGE_LOOP ( 'NONE', ( #17 ) ) ;
#382 = VERTEX_POINT ( 'NONE', #98 ) ;
#383 = AXIS2_PLACEMENT_3D ( 'NONE', #302, #30, #146 ) ;
#384 = EDGE_LOOP ( 'NONE', ( #317 ) ) ;
#385 = DIRECTION ( 'NONE',  ( 3.491481338843133355E-15, -0.000000000000000000, 1.000000000000000000 ) ) ;
#386 = CALENDAR_DATE ( 2023, 27, 9 ) ;
#387 = FACE_BOUND ( 'NONE', #185, .T. ) ;
#388 = CONICAL_SURFACE ( 'NONE', #50, 0.3540741737109293075, 0.2617993877991426355 ) ;
#389 = LOCAL_TIME ( 10, 29, 49.00000000000000000, #353 ) ;
#390 = EDGE_CURVE ( 'NONE', #93, #93, #68, .T. ) ;
#391 = DIRECTION ( 'NONE',  ( 3.491481338843133355E-15, -0.000000000000000000, 1.000000000000000000 ) ) ;
#392 = APPLICATION_CONTEXT ( 'configuration controlled 3d designs of mechanical parts and assemblies' ) ;
#393 = CLOSED_SHELL ( 'NONE', ( #55, #272, #307, #276, #110, #247, #216, #3, #173, #123, #31, #241, #25, #313, #236, #321 ) ) ;
#394 = DIRECTION ( 'NONE',  ( 1.000000000000000000, 0.000000000000000000, 0.000000000000000000 ) ) ;
#395 = AXIS2_PLACEMENT_3D ( 'NONE', #366, #32, #179 ) ;
ENDSEC;
END-ISO-10303-21;
