ISO-10303-21;
HEADER;
FILE_DESCRIPTION (( 'STEP AP203' ),
    '1' );
FILE_NAME ('960451.step',
    '2023-09-27T08:29:48',
    ( '' ),
    ( '' ),
    'SwSTEP 2.0',
    'SolidWorks 2022',
    '' );
FILE_SCHEMA (( 'CONFIG_CONTROL_DESIGN' ));
ENDSEC;

DATA;
#1 = ADVANCED_FACE ( 'NONE', ( #17, #199 ), #33, .T. ) ;
#2 = DIRECTION ( 'NONE',  ( 1.000000000000000000, 0.000000000000000000, -5.782411586589388010E-15 ) ) ;
#3 = CARTESIAN_POINT ( 'NONE',  ( 0.5250000000000004663, 0.000000000000000000, 0.1374999999999969025 ) ) ;
#4 = CIRCLE ( 'NONE', #281, 0.2899999999999999800 ) ;
#5 = CARTESIAN_POINT ( 'NONE',  ( 1.117274028429802674E-14, 0.000000000000000000, 3.200000000000000178 ) ) ;
#6 = VERTEX_POINT ( 'NONE', #165 ) ;
#7 = ADVANCED_FACE ( 'NONE', ( #287, #256 ), #164, .T. ) ;
#8 = EDGE_LOOP ( 'NONE', ( #99 ) ) ;
#9 = AXIS2_PLACEMENT_3D ( 'NONE', #113, #26, #320 ) ;
#10 = CARTESIAN_POINT ( 'NONE',  ( 0.5250000000000015765, 0.000000000000000000, 0.4374999999999985567 ) ) ;
#11 = CONICAL_SURFACE ( 'NONE', #390, 1.499999999999996447, 0.7853981633974501664 ) ;
#12 = ORIENTED_EDGE ( 'NONE', *, *, #284, .T. ) ;
#13 = ADVANCED_FACE ( 'NONE', ( #141, #264 ), #329, .T. ) ;
#14 = CARTESIAN_POINT ( 'NONE',  ( 0.5250000000000016875, 0.000000000000000000, 0.4624999999999958034 ) ) ;
#15 = EDGE_LOOP ( 'NONE', ( #317 ) ) ;
#16 = CALENDAR_DATE ( 2023, 27, 9 ) ;
#17 = FACE_OUTER_BOUND ( 'NONE', #15, .T. ) ;
#18 = CIRCLE ( 'NONE', #307, 0.3517949192431112371 ) ;
#19 = EDGE_LOOP ( 'NONE', ( #224 ) ) ;
#20 = CALENDAR_DATE ( 2023, 27, 9 ) ;
#21 = DIRECTION ( 'NONE',  ( 3.491481338843133355E-15, -0.000000000000000000, 1.000000000000000000 ) ) ;
#22 = CALENDAR_DATE ( 2023, 27, 9 ) ;
#23 = CARTESIAN_POINT ( 'NONE',  ( 1.207640215041065256E-14, 0.000000000000000000, 3.458819045102513812 ) ) ;
#24 = EDGE_CURVE ( 'NONE', #313, #313, #371, .T. ) ;
#25 = CALENDAR_DATE ( 2023, 27, 9 ) ;
#26 = DIRECTION ( 'NONE',  ( 3.491481338843133355E-15, -0.000000000000000000, 1.000000000000000000 ) ) ;
#27 = ORIENTED_EDGE ( 'NONE', *, *, #24, .F. ) ;
#28 = DIRECTION ( 'NONE',  ( 1.000000000000000000, 0.000000000000000000, -4.625929269271490844E-15 ) ) ;
#29 = ADVANCED_FACE ( 'NONE', ( #323, #239 ), #201, .T. ) ;
#30 = DIRECTION ( 'NONE',  ( 3.491481338843133355E-15, -0.000000000000000000, 1.000000000000000000 ) ) ;
#31 = ADVANCED_FACE ( 'NONE', ( #297, #331 ), #93, .T. ) ;
#32 = DIRECTION ( 'NONE',  ( 3.491481338843133355E-15, -0.000000000000000000, 1.000000000000000000 ) ) ;
#33 = CONICAL_SURFACE ( 'NONE', #87, 0.3240741737109296694, 0.2617993877991428020 ) ;
#34 = DIRECTION ( 'NONE',  ( 3.491481338843133355E-15, -0.000000000000000000, 1.000000000000000000 ) ) ;
#35 = DIRECTION ( 'NONE',  ( 1.000000000000000000, 0.000000000000000000, -3.544202687863989684E-15 ) ) ;
#36 = EDGE_CURVE ( 'NONE', #280, #280, #357, .T. ) ;
#37 = DIRECTION ( 'NONE',  ( 3.491481338843133355E-15, -0.000000000000000000, 1.000000000000000000 ) ) ;
#38 =( NAMED_UNIT ( * ) SI_UNIT ( $, .STERADIAN. ) SOLID_ANGLE_UNIT ( ) );
#39 = VERTEX_POINT ( 'NONE', #163 ) ;
#40 = MECHANICAL_CONTEXT ( 'NONE', #145, 'mechanical' ) ;
#41 = EDGE_LOOP ( 'NONE', ( #380 ) ) ;
#42 = DIRECTION ( 'NONE',  ( 3.491481338843133355E-15, -0.000000000000000000, 1.000000000000000000 ) ) ;
#43 = AXIS2_PLACEMENT_3D ( 'NONE', #276, #111, #178 ) ;
#44 = CARTESIAN_POINT ( 'NONE',  ( 0.2868430139592783035, 0.000000000000000000, -1.001507030416340591E-15 ) ) ;
#45 = VERTEX_POINT ( 'NONE', #169 ) ;
#46 = ORIENTED_EDGE ( 'NONE', *, *, #225, .T. ) ;
#47 = PERSON_AND_ORGANIZATION_ROLE ( 'classification_officer' ) ;
#48 = ORIENTED_EDGE ( 'NONE', *, *, #101, .F. ) ;
#49 = PRODUCT_RELATED_PRODUCT_CATEGORY ( 'detail', '', ( #328 ) ) ;
#50 = PERSON_AND_ORGANIZATION_ROLE ( 'creator' ) ;
#51 = EDGE_LOOP ( 'NONE', ( #27 ) ) ;
#52 = DATE_AND_TIME ( #358, #209 ) ;
#53 = AXIS2_PLACEMENT_3D ( 'NONE', #115, #175, #391 ) ;
#54 = PLANE ( 'NONE',  #241 ) ;
#55 = DIRECTION ( 'NONE',  ( 3.491481338843133355E-15, -0.000000000000000000, 1.000000000000000000 ) ) ;
#56 = PERSON_AND_ORGANIZATION ( #334, #156 ) ;
#57 = DIRECTION ( 'NONE',  ( 1.000000000000000000, 0.000000000000000000, -3.390106918826424984E-15 ) ) ;
#58 = EDGE_LOOP ( 'NONE', ( #46 ) ) ;
#59 = FACE_BOUND ( 'NONE', #41, .T. ) ;
#60 = CARTESIAN_POINT ( 'NONE',  ( 1.316288464743861212E-13, 0.000000000000000000, 37.69999999999999574 ) ) ;
#61 = FACE_OUTER_BOUND ( 'NONE', #8, .T. ) ;
#62 = CARTESIAN_POINT ( 'NONE',  ( 0.000000000000000000, 0.000000000000000000, 0.000000000000000000 ) ) ;
#63 = CYLINDRICAL_SURFACE ( 'NONE', #378, 0.2899999999999999245 ) ;
#64 = VERTEX_POINT ( 'NONE', #191 ) ;
#65 = DIRECTION ( 'NONE',  ( 1.000000000000000000, 0.000000000000000000, 0.000000000000000000 ) ) ;
#66 = CIRCLE ( 'NONE', #377, 0.5250000000000000222 ) ;
#67 = AXIS2_PLACEMENT_3D ( 'NONE', #160, #37, #213 ) ;
#68 = DIRECTION ( 'NONE',  ( 1.000000000000000000, 0.000000000000000000, 0.000000000000000000 ) ) ;
#69 = VERTEX_POINT ( 'NONE', #129 ) ;
#70 = EDGE_CURVE ( 'NONE', #39, #39, #261, .T. ) ;
#71 = EDGE_LOOP ( 'NONE', ( #12 ) ) ;
#72 = EDGE_LOOP ( 'NONE', ( #131 ) ) ;
#73 = EDGE_CURVE ( 'NONE', #332, #332, #81, .T. ) ;
#74 = EDGE_LOOP ( 'NONE', ( #351 ) ) ;
#75 = CC_DESIGN_PERSON_AND_ORGANIZATION_ASSIGNMENT ( #56, #50, ( #179 ) ) ;
#76 = EDGE_LOOP ( 'NONE', ( #171 ) ) ;
#77 = PERSON_AND_ORGANIZATION_ROLE ( 'creator' ) ;
#78 = FACE_OUTER_BOUND ( 'NONE', #58, .T. ) ;
#79 = ADVANCED_FACE ( 'NONE', ( #392, #78 ), #206, .T. ) ;
#80 = DATE_AND_TIME ( #16, #302 ) ;
#81 = CIRCLE ( 'NONE', #300, 0.3240741737109296694 ) ;
#82 = CYLINDRICAL_SURFACE ( 'NONE', #248, 1.499999999999998224 ) ;
#83 = LOCAL_TIME ( 10, 29, 48.00000000000000000, #386 ) ;
#84 = DIRECTION ( 'NONE',  ( -1.000000000000000000, 0.000000000000000000, 3.510749891857823562E-15 ) ) ;
#85 = APPROVAL_STATUS ( 'not_yet_approved' ) ;
#86 = DIRECTION ( 'NONE',  ( 3.491481338843133355E-15, -0.000000000000000000, 1.000000000000000000 ) ) ;
#87 = AXIS2_PLACEMENT_3D ( 'NONE', #315, #42, #286 ) ;
#88 = DIRECTION ( 'NONE',  ( 1.000000000000000000, 0.000000000000000000, -3.491481338843133355E-15 ) ) ;
#89 = FACE_OUTER_BOUND ( 'NONE', #370, .T. ) ;
#90 = DIRECTION ( 'NONE',  ( 1.000000000000000000, 0.000000000000000000, -3.491481338843133355E-15 ) ) ;
#91 = ADVANCED_FACE ( 'NONE', ( #327, #59 ), #345, .T. ) ;
#92 = DIRECTION ( 'NONE',  ( 3.491481338843133355E-15, -0.000000000000000000, 1.000000000000000000 ) ) ;
#93 = CONICAL_SURFACE ( 'NONE', #253, 0.2868430139592783035, 1.047197551196603849 ) ;
#94 =( GEOMETRIC_REPRESENTATION_CONTEXT ( 3 ) GLOBAL_UNCERTAINTY_ASSIGNED_CONTEXT ( ( #271 ) ) GLOBAL_UNIT_ASSIGNED_CONTEXT ( ( #188, #282, #38 ) ) REPRESENTATION_CONTEXT ( 'NONE', 'WORKASPACE' ) );
#95 = FACE_OUTER_BOUND ( 'NONE', #133, .T. ) ;
#96 = DIRECTION ( 'NONE',  ( 3.491481338843133355E-15, -0.000000000000000000, 1.000000000000000000 ) ) ;
#97 = CARTESIAN_POINT ( 'NONE',  ( 0.5250000000000005773, 0.000000000000000000, 0.1625000000000010880 ) ) ;
#98 = CARTESIAN_POINT ( 'NONE',  ( 0.3517949192431134020, 0.000000000000000000, 0.6000000000000020872 ) ) ;
#99 = ORIENTED_EDGE ( 'NONE', *, *, #73, .F. ) ;
#100 = AXIS2_PLACEMENT_3D ( 'NONE', #364, #21, #296 ) ;
#101 = EDGE_CURVE ( 'NONE', #155, #155, #365, .T. ) ;
#102 = DIRECTION ( 'NONE',  ( 1.000000000000000000, 0.000000000000000000, 0.000000000000000000 ) ) ;
#103 = TOROIDAL_SURFACE ( 'NONE', #128, 1.289999999999999591, 1.000000000000000000 ) ;
#104 = ORIENTED_EDGE ( 'NONE', *, *, #210, .F. ) ;
#105 = ORIENTED_EDGE ( 'NONE', *, *, #289, .F. ) ;
#106 = EDGE_LOOP ( 'NONE', ( #48 ) ) ;
#107 = CIRCLE ( 'NONE', #228, 1.199999999999993516 ) ;
#108 = APPROVAL_ROLE ( '' ) ;
#109 = EDGE_LOOP ( 'NONE', ( #254 ) ) ;
#110 = APPROVAL_DATE_TIME ( #112, #158 ) ;
#111 = DIRECTION ( 'NONE',  ( 3.491481338843133355E-15, -0.000000000000000000, 1.000000000000000000 ) ) ;
#112 = DATE_AND_TIME ( #25, #309 ) ;
#113 = CARTESIAN_POINT ( 'NONE',  ( 1.527523085743872223E-15, 0.000000000000000000, 0.4375000000000003886 ) ) ;
#114 = DATE_AND_TIME ( #22, #83 ) ;
#115 = CARTESIAN_POINT ( 'NONE',  ( 1.326762908760390423E-13, 0.000000000000000000, 38.00000000000000000 ) ) ;
#116 = APPROVAL_PERSON_ORGANIZATION ( #265, #354, #108 ) ;
#117 = FACE_OUTER_BOUND ( 'NONE', #136, .T. ) ;
#118 = CC_DESIGN_PERSON_AND_ORGANIZATION_ASSIGNMENT ( #318, #292, ( #328 ) ) ;
#119 = DIRECTION ( 'NONE',  ( 3.491481338843133355E-15, -0.000000000000000000, 1.000000000000000000 ) ) ;
#120 = MANIFOLD_SOLID_BREP ( 'Corps-Déplacer/Copier1', #220 ) ;
#121 = AXIS2_PLACEMENT_3D ( 'NONE', #387, #363, #177 ) ;
#122 = CARTESIAN_POINT ( 'NONE',  ( 0.3517949192431132910, 0.000000000000000000, 0.5624999999999993339 ) ) ;
#123 = DIRECTION ( 'NONE',  ( -3.491481338843133355E-15, 0.000000000000000000, -1.000000000000000000 ) ) ;
#124 = CARTESIAN_POINT ( 'NONE',  ( 1.326762908760390423E-13, 1.199999999999993516, 38.00000000000000000 ) ) ;
#125 = DIRECTION ( 'NONE',  ( 3.491481338843133355E-15, -0.000000000000000000, 1.000000000000000000 ) ) ;
#126 = AXIS2_PLACEMENT_3D ( 'NONE', #152, #299, #84 ) ;
#127 = DESIGN_CONTEXT ( 'detailed design', #166, 'design' ) ;
#128 = AXIS2_PLACEMENT_3D ( 'NONE', #5, #96, #218 ) ;
#129 = CARTESIAN_POINT ( 'NONE',  ( 1.500000000000127898, 0.000000000000000000, 37.69999999999998863 ) ) ;
#130 = CARTESIAN_POINT ( 'NONE',  ( 1.326762908760390423E-13, 0.000000000000000000, 38.00000000000000000 ) ) ;
#131 = ORIENTED_EDGE ( 'NONE', *, *, #36, .F. ) ;
#132 = APPLICATION_PROTOCOL_DEFINITION ( 'international standard', 'config_control_design', 1994, #145 ) ;
#133 = EDGE_LOOP ( 'NONE', ( #291 ) ) ;
#134 = VERTEX_POINT ( 'NONE', #14 ) ;
#135 = CARTESIAN_POINT ( 'NONE',  ( 0.2900000000000020894, 0.000000000000000000, 0.6000000000000023093 ) ) ;
#136 = EDGE_LOOP ( 'NONE', ( #105 ) ) ;
#137 = EDGE_LOOP ( 'NONE', ( #310 ) ) ;
#138 = APPROVAL_DATE_TIME ( #80, #151 ) ;
#139 = CARTESIAN_POINT ( 'NONE',  ( 1.326762908760390423E-13, 0.000000000000000000, 38.00000000000000000 ) ) ;
#140 = AXIS2_PLACEMENT_3D ( 'NONE', #153, #146, #269 ) ;
#141 = FACE_BOUND ( 'NONE', #51, .T. ) ;
#142 = PERSON_AND_ORGANIZATION_ROLE ( 'design_supplier' ) ;
#143 = FACE_OUTER_BOUND ( 'NONE', #221, .T. ) ;
#144 = COORDINATED_UNIVERSAL_TIME_OFFSET ( 1, 0, .AHEAD. ) ;
#145 = APPLICATION_CONTEXT ( 'configuration controlled 3d designs of mechanical parts and assemblies' ) ;
#146 = DIRECTION ( 'NONE',  ( 3.491481338843133355E-15, -0.000000000000000000, 1.000000000000000000 ) ) ;
#147 = AXIS2_PLACEMENT_3D ( 'NONE', #139, #381, #68 ) ;
#148 = CARTESIAN_POINT ( 'NONE',  ( 2.094888803305891846E-15, 0.000000000000000000, 0.6000000000000033085 ) ) ;
#149 = ADVANCED_FACE ( 'NONE', ( #303, #143 ), #82, .T. ) ;
#150 = ORIENTED_EDGE ( 'NONE', *, *, #350, .F. ) ;
#151 = APPROVAL ( #85, 'UNSPECIFIED' ) ;
#152 = CARTESIAN_POINT ( 'NONE',  ( 5.673657175620194254E-16, 0.000000000000000000, 0.1625000000000029199 ) ) ;
#153 = CARTESIAN_POINT ( 'NONE',  ( 1.326762908760390423E-13, 0.000000000000000000, 38.00000000000000000 ) ) ;
#154 = PRODUCT_DEFINITION_SHAPE ( 'NONE', 'NONE',  #285 ) ;
#155 = VERTEX_POINT ( 'NONE', #197 ) ;
#156 = ORGANIZATION ( 'UNSPECIFIED', 'UNSPECIFIED', '' ) ;
#157 = FACE_OUTER_BOUND ( 'NONE', #383, .T. ) ;
#158 = APPROVAL ( #258, 'UNSPECIFIED' ) ;
#159 = ORIENTED_EDGE ( 'NONE', *, *, #330, .T. ) ;
#160 = CARTESIAN_POINT ( 'NONE',  ( 1.614810119214940894E-15, 0.000000000000000000, 0.4624999999999976352 ) ) ;
#161 = PLANE ( 'NONE',  #373 ) ;
#162 = AXIS2_PLACEMENT_3D ( 'NONE', #385, #192, #208 ) ;
#163 = CARTESIAN_POINT ( 'NONE',  ( 0.3517949192431125138, 0.000000000000000000, 0.3374999999999963030 ) ) ;
#164 = CYLINDRICAL_SURFACE ( 'NONE', #147, 0.3517949192431112371 ) ;
#165 = CARTESIAN_POINT ( 'NONE',  ( 1.200000000000126299, 0.000000000000000000, 37.99999999999999289 ) ) ;
#166 = APPLICATION_CONTEXT ( 'configuration controlled 3d designs of mechanical parts and assemblies' ) ;
#167 = ORIENTED_EDGE ( 'NONE', *, *, #222, .F. ) ;
#168 = AXIS2_PLACEMENT_3D ( 'NONE', #62, #245, #90 ) ;
#169 = CARTESIAN_POINT ( 'NONE',  ( 1.500000000000027311, 0.000000000000000000, 7.847433974745849028 ) ) ;
#170 = EDGE_LOOP ( 'NONE', ( #167 ) ) ;
#171 = ORIENTED_EDGE ( 'NONE', *, *, #350, .T. ) ;
#172 = EDGE_LOOP ( 'NONE', ( #260 ) ) ;
#173 = CC_DESIGN_PERSON_AND_ORGANIZATION_ASSIGNMENT ( #236, #142, ( #179 ) ) ;
#174 = CARTESIAN_POINT ( 'NONE',  ( 2.094888803305891846E-15, 0.000000000000000000, 0.6000000000000033085 ) ) ;
#175 = DIRECTION ( 'NONE',  ( 3.491481338843133355E-15, -0.000000000000000000, 1.000000000000000000 ) ) ;
#176 = DATE_TIME_ROLE ( 'classification_date' ) ;
#177 = DIRECTION ( 'NONE',  ( 1.000000000000000000, 0.000000000000000000, -3.544202687863989290E-15 ) ) ;
#178 = DIRECTION ( 'NONE',  ( 1.000000000000000000, 0.000000000000000000, -3.544202687863989290E-15 ) ) ;
#179 = PRODUCT_DEFINITION_FORMATION_WITH_SPECIFIED_SOURCE ( 'ANY', '', #328, .NOT_KNOWN. ) ;
#180 = CARTESIAN_POINT ( 'NONE',  ( 4.800786840909263990E-16, 0.000000000000000000, 0.1374999999999987343 ) ) ;
#181 = DIRECTION ( 'NONE',  ( 1.000000000000000000, 0.000000000000000000, -3.491481338843133355E-15 ) ) ;
#182 = CIRCLE ( 'NONE', #9, 0.5250000000000000222 ) ;
#183 = FACE_OUTER_BOUND ( 'NONE', #106, .T. ) ;
#184 = DIRECTION ( 'NONE',  ( -3.491481338843133355E-15, 0.000000000000000000, -1.000000000000000000 ) ) ;
#185 = DIRECTION ( 'NONE',  ( 1.000000000000000000, 0.000000000000000000, -4.625929269271496366E-15 ) ) ;
#186 = ADVANCED_FACE ( 'NONE', ( #356, #237 ), #382, .T. ) ;
#187 = CC_DESIGN_DATE_AND_TIME_ASSIGNMENT ( #52, #176, ( #263 ) ) ;
#188 =( LENGTH_UNIT ( ) NAMED_UNIT ( * ) SI_UNIT ( .MILLI., .METRE. ) );
#189 = FACE_OUTER_BOUND ( 'NONE', #137, .T. ) ;
#190 = AXIS2_PLACEMENT_3D ( 'NONE', #205, #353, #203 ) ;
#191 = CARTESIAN_POINT ( 'NONE',  ( 0.3517949192431121253, 0.000000000000000000, 0.2624999999999976241 ) ) ;
#192 = DIRECTION ( 'NONE',  ( -3.491481338843133355E-15, 0.000000000000000000, -1.000000000000000000 ) ) ;
#193 = VERTEX_POINT ( 'NONE', #135 ) ;
#194 = EDGE_LOOP ( 'NONE', ( #246 ) ) ;
#195 = ORIENTED_EDGE ( 'NONE', *, *, #222, .T. ) ;
#196 = AXIS2_PLACEMENT_3D ( 'NONE', #223, #252, #102 ) ;
#197 = CARTESIAN_POINT ( 'NONE',  ( 0.2900000000000110822, 0.000000000000000000, 3.200000000000000622 ) ) ;
#198 = ORIENTED_EDGE ( 'NONE', *, *, #368, .F. ) ;
#199 = FACE_BOUND ( 'NONE', #19, .T. ) ;
#200 = SHAPE_DEFINITION_REPRESENTATION ( #154, #268 ) ;
#201 = CYLINDRICAL_SURFACE ( 'NONE', #53, 0.3517949192431112926 ) ;
#202 = APPROVAL_STATUS ( 'not_yet_approved' ) ;
#203 = DIRECTION ( 'NONE',  ( 1.000000000000000000, 0.000000000000000000, -3.469446951953614189E-15 ) ) ;
#204 = PERSON_AND_ORGANIZATION ( #334, #156 ) ;
#205 = CARTESIAN_POINT ( 'NONE',  ( 2.739916928062874738E-14, 0.000000000000000000, 7.847433974745854357 ) ) ;
#206 = CYLINDRICAL_SURFACE ( 'NONE', #140, 0.5250000000000000222 ) ;
#207 = CIRCLE ( 'NONE', #190, 1.500000000000000000 ) ;
#208 = DIRECTION ( 'NONE',  ( -1.000000000000000000, 0.000000000000000000, 3.510749891857823562E-15 ) ) ;
#209 = LOCAL_TIME ( 10, 29, 48.00000000000000000, #352 ) ;
#210 = EDGE_CURVE ( 'NONE', #193, #193, #4, .T. ) ;
#211 = FACE_BOUND ( 'NONE', #226, .T. ) ;
#212 = CC_DESIGN_PERSON_AND_ORGANIZATION_ASSIGNMENT ( #232, #47, ( #263 ) ) ;
#213 = DIRECTION ( 'NONE',  ( 1.000000000000000000, 0.000000000000000000, -3.510749891857823562E-15 ) ) ;
#214 = AXIS2_PLACEMENT_3D ( 'NONE', #180, #234, #305 ) ;
#215 = DIRECTION ( 'NONE',  ( 1.000000000000000000, 0.000000000000000000, -3.510749891857823562E-15 ) ) ;
#216 = CYLINDRICAL_SURFACE ( 'NONE', #294, 0.5250000000000000222 ) ;
#217 = EDGE_CURVE ( 'NONE', #45, #45, #207, .T. ) ;
#218 = DIRECTION ( 'NONE',  ( 1.000000000000000000, 0.000000000000000000, -3.491481338843133355E-15 ) ) ;
#219 = VERTEX_POINT ( 'NONE', #10 ) ;
#220 = CLOSED_SHELL ( 'NONE', ( #257, #31, #279, #186, #7, #91, #79, #13, #29, #361, #288, #362, #1, #149, #335, #266 ) ) ;
#221 = EDGE_LOOP ( 'NONE', ( #227 ) ) ;
#222 = EDGE_CURVE ( 'NONE', #349, #349, #18, .T. ) ;
#223 = CARTESIAN_POINT ( 'NONE',  ( 0.000000000000000000, 0.000000000000000000, 0.000000000000000000 ) ) ;
#224 = ORIENTED_EDGE ( 'NONE', *, *, #73, .T. ) ;
#225 = EDGE_CURVE ( 'NONE', #219, #219, #182, .T. ) ;
#226 = EDGE_LOOP ( 'NONE', ( #104 ) ) ;
#227 = ORIENTED_EDGE ( 'NONE', *, *, #217, .T. ) ;
#228 = AXIS2_PLACEMENT_3D ( 'NONE', #372, #34, #2 ) ;
#229 = SECURITY_CLASSIFICATION_LEVEL ( 'unclassified' ) ;
#230 = AXIS2_PLACEMENT_3D ( 'NONE', #339, #336, #185 ) ;
#231 = EDGE_LOOP ( 'NONE', ( #198 ) ) ;
#232 = PERSON_AND_ORGANIZATION ( #334, #156 ) ;
#233 = DIRECTION ( 'NONE',  ( 3.491481338843133355E-15, -0.000000000000000000, 1.000000000000000000 ) ) ;
#234 = DIRECTION ( 'NONE',  ( 3.491481338843133355E-15, -0.000000000000000000, 1.000000000000000000 ) ) ;
#235 = AXIS2_PLACEMENT_3D ( 'NONE', #124, #123, #393 ) ;
#236 = PERSON_AND_ORGANIZATION ( #334, #156 ) ;
#237 = FACE_OUTER_BOUND ( 'NONE', #71, .T. ) ;
#238 = APPLICATION_PROTOCOL_DEFINITION ( 'international standard', 'config_control_design', 1994, #166 ) ;
#239 = FACE_OUTER_BOUND ( 'NONE', #172, .T. ) ;
#240 = DIRECTION ( 'NONE',  ( 1.000000000000000000, 0.000000000000000000, -3.364765362886048502E-15 ) ) ;
#241 = AXIS2_PLACEMENT_3D ( 'NONE', #249, #125, #181 ) ;
#242 = FACE_OUTER_BOUND ( 'NONE', #376, .T. ) ;
#243 = CIRCLE ( 'NONE', #168, 0.2868430139592783035 ) ;
#244 = CC_DESIGN_DATE_AND_TIME_ASSIGNMENT ( #298, #388, ( #285 ) ) ;
#245 = DIRECTION ( 'NONE',  ( 3.491481338843133355E-15, -0.000000000000000000, 1.000000000000000000 ) ) ;
#246 = ORIENTED_EDGE ( 'NONE', *, *, #330, .F. ) ;
#247 = FACE_OUTER_BOUND ( 'NONE', #301, .T. ) ;
#248 = AXIS2_PLACEMENT_3D ( 'NONE', #389, #233, #28 ) ;
#249 = CARTESIAN_POINT ( 'NONE',  ( 8.025537667294824960E-35, 0.000000000000000000, 2.298605344960544695E-20 ) ) ;
#250 = CC_DESIGN_APPROVAL ( #151, ( #285 ) ) ;
#251 = DIRECTION ( 'NONE',  ( 3.491481338843133355E-15, -0.000000000000000000, 1.000000000000000000 ) ) ;
#252 = DIRECTION ( 'NONE',  ( 0.000000000000000000, 0.000000000000000000, 1.000000000000000000 ) ) ;
#253 = AXIS2_PLACEMENT_3D ( 'NONE', #275, #86, #88 ) ;
#254 = ORIENTED_EDGE ( 'NONE', *, *, #259, .F. ) ;
#255 = CIRCLE ( 'NONE', #347, 0.3517949192431112371 ) ;
#256 = FACE_OUTER_BOUND ( 'NONE', #344, .T. ) ;
#257 = ADVANCED_FACE ( 'NONE', ( #117 ), #54, .F. ) ;
#258 = APPROVAL_STATUS ( 'not_yet_approved' ) ;
#259 = EDGE_CURVE ( 'NONE', #6, #6, #107, .T. ) ;
#260 = ORIENTED_EDGE ( 'NONE', *, *, #24, .T. ) ;
#261 = CIRCLE ( 'NONE', #121, 0.3517949192431112926 ) ;
#262 = COORDINATED_UNIVERSAL_TIME_OFFSET ( 1, 0, .AHEAD. ) ;
#263 = SECURITY_CLASSIFICATION ( '', '', #229 ) ;
#264 = FACE_OUTER_BOUND ( 'NONE', #76, .T. ) ;
#265 = PERSON_AND_ORGANIZATION ( #334, #156 ) ;
#266 = ADVANCED_FACE ( 'NONE', ( #95 ), #395, .F. ) ;
#267 = DIRECTION ( 'NONE',  ( 1.000000000000000000, 0.000000000000000000, -4.014644524383235477E-15 ) ) ;
#268 = ADVANCED_BREP_SHAPE_REPRESENTATION ( '960451', ( #120, #196 ), #94 ) ;
#269 = DIRECTION ( 'NONE',  ( 1.000000000000000000, 0.000000000000000000, 0.000000000000000000 ) ) ;
#270 = AXIS2_PLACEMENT_3D ( 'NONE', #360, #55, #273 ) ;
#271 = UNCERTAINTY_MEASURE_WITH_UNIT (LENGTH_MEASURE( 1.000000000000000082E-05 ), #188, 'distance_accuracy_value', 'NONE');
#272 = APPROVAL_PERSON_ORGANIZATION ( #290, #151, #295 ) ;
#273 = DIRECTION ( 'NONE',  ( 1.000000000000000000, 0.000000000000000000, -3.390106918826424590E-15 ) ) ;
#274 = ORIENTED_EDGE ( 'NONE', *, *, #70, .F. ) ;
#275 = CARTESIAN_POINT ( 'NONE',  ( 0.000000000000000000, 0.000000000000000000, 0.000000000000000000 ) ) ;
#276 = CARTESIAN_POINT ( 'NONE',  ( 1.178374951859548830E-15, 0.000000000000000000, 0.3374999999999975242 ) ) ;
#277 = CARTESIAN_POINT ( 'NONE',  ( 1.326762908760390423E-13, 0.000000000000000000, 38.00000000000000000 ) ) ;
#278 = DIRECTION ( 'NONE',  ( 3.491481338843133355E-15, -0.000000000000000000, 1.000000000000000000 ) ) ;
#279 = ADVANCED_FACE ( 'NONE', ( #157, #242 ), #216, .T. ) ;
#280 = VERTEX_POINT ( 'NONE', #3 ) ;
#281 = AXIS2_PLACEMENT_3D ( 'NONE', #148, #119, #240 ) ;
#282 =( NAMED_UNIT ( * ) PLANE_ANGLE_UNIT ( ) SI_UNIT ( $, .RADIAN. ) );
#283 = DIRECTION ( 'NONE',  ( -1.000000000000000000, 0.000000000000000000, 3.491481338843133355E-15 ) ) ;
#284 = EDGE_CURVE ( 'NONE', #340, #340, #66, .T. ) ;
#285 = PRODUCT_DEFINITION ( 'UNKNOWN', '', #179, #127 ) ;
#286 = DIRECTION ( 'NONE',  ( 1.000000000000000000, 0.000000000000000000, -4.014644524383235477E-15 ) ) ;
#287 = FACE_OUTER_BOUND ( 'NONE', #342, .T. ) ;
#288 = ADVANCED_FACE ( 'NONE', ( #183, #89 ), #63, .T. ) ;
#289 = EDGE_CURVE ( 'NONE', #375, #375, #243, .T. ) ;
#290 = PERSON_AND_ORGANIZATION ( #334, #156 ) ;
#291 = ORIENTED_EDGE ( 'NONE', *, *, #259, .T. ) ;
#292 = PERSON_AND_ORGANIZATION_ROLE ( 'design_owner' ) ;
#293 = EDGE_LOOP ( 'NONE', ( #150 ) ) ;
#294 = AXIS2_PLACEMENT_3D ( 'NONE', #277, #278, #369 ) ;
#295 = APPROVAL_ROLE ( '' ) ;
#296 = DIRECTION ( 'NONE',  ( 1.000000000000000000, 0.000000000000000000, -2.990902544787599676E-15 ) ) ;
#297 = FACE_OUTER_BOUND ( 'NONE', #72, .T. ) ;
#298 = DATE_AND_TIME ( #20, #384 ) ;
#299 = DIRECTION ( 'NONE',  ( -3.491481338843133355E-15, 0.000000000000000000, -1.000000000000000000 ) ) ;
#300 = AXIS2_PLACEMENT_3D ( 'NONE', #23, #30, #267 ) ;
#301 = EDGE_LOOP ( 'NONE', ( #195 ) ) ;
#302 = LOCAL_TIME ( 10, 29, 48.00000000000000000, #262 ) ;
#303 = FACE_OUTER_BOUND ( 'NONE', #194, .T. ) ;
#304 = CC_DESIGN_PERSON_AND_ORGANIZATION_ASSIGNMENT ( #204, #77, ( #285 ) ) ;
#305 = DIRECTION ( 'NONE',  ( 1.000000000000000000, 0.000000000000000000, -3.510749891857823562E-15 ) ) ;
#306 = CARTESIAN_POINT ( 'NONE',  ( 0.3240741737109417708, 0.000000000000000000, 3.458819045102512479 ) ) ;
#307 = AXIS2_PLACEMENT_3D ( 'NONE', #174, #325, #57 ) ;
#308 = DIRECTION ( 'NONE',  ( -3.491481338843133355E-15, 0.000000000000000000, -1.000000000000000000 ) ) ;
#309 = LOCAL_TIME ( 10, 29, 48.00000000000000000, #144 ) ;
#310 = ORIENTED_EDGE ( 'NONE', *, *, #101, .T. ) ;
#311 = CARTESIAN_POINT ( 'NONE',  ( 9.165138514463183642E-16, 0.000000000000000000, 0.2624999999999988454 ) ) ;
#312 = DIRECTION ( 'NONE',  ( -1.000000000000000000, 0.000000000000000000, 4.625929269271496366E-15 ) ) ;
#313 = VERTEX_POINT ( 'NONE', #122 ) ;
#314 = ORIENTED_EDGE ( 'NONE', *, *, #289, .T. ) ;
#315 = CARTESIAN_POINT ( 'NONE',  ( 1.207640215041065256E-14, 0.000000000000000000, 3.458819045102513812 ) ) ;
#316 = EDGE_LOOP ( 'NONE', ( #314 ) ) ;
#317 = ORIENTED_EDGE ( 'NONE', *, *, #217, .F. ) ;
#318 = PERSON_AND_ORGANIZATION ( #334, #156 ) ;
#319 = EDGE_LOOP ( 'NONE', ( #159 ) ) ;
#320 = DIRECTION ( 'NONE',  ( 1.000000000000000000, 0.000000000000000000, -3.510749891857823562E-15 ) ) ;
#321 = APPROVAL_DATE_TIME ( #114, #354 ) ;
#322 = CC_DESIGN_SECURITY_CLASSIFICATION ( #263, ( #179 ) ) ;
#323 = FACE_OUTER_BOUND ( 'NONE', #170, .T. ) ;
#324 = APPROVAL_ROLE ( '' ) ;
#325 = DIRECTION ( 'NONE',  ( 3.491481338843133355E-15, -0.000000000000000000, 1.000000000000000000 ) ) ;
#326 = ORIENTED_EDGE ( 'NONE', *, *, #210, .T. ) ;
#327 = FACE_OUTER_BOUND ( 'NONE', #74, .T. ) ;
#328 = PRODUCT ( '960451', '960451', '', ( #40 ) ) ;
#329 = CONICAL_SURFACE ( 'NONE', #162, 0.5250000000000000222, 1.047197551196587861 ) ;
#330 = EDGE_CURVE ( 'NONE', #69, #69, #337, .T. ) ;
#331 = FACE_BOUND ( 'NONE', #316, .T. ) ;
#332 = VERTEX_POINT ( 'NONE', #306 ) ;
#333 = CARTESIAN_POINT ( 'NONE',  ( 2.094888803305880013E-15, 0.3517949192431112371, 0.6000000000000000888 ) ) ;
#334 = PERSON ( 'UNSPECIFIED', 'UNSPECIFIED', 'UNSPECIFIED', ('UNSPECIFIED'), ('UNSPECIFIED'), ('UNSPECIFIED') ) ;
#335 = ADVANCED_FACE ( 'NONE', ( #374, #367 ), #11, .T. ) ;
#336 = DIRECTION ( 'NONE',  ( 3.491481338843133355E-15, -0.000000000000000000, 1.000000000000000000 ) ) ;
#337 = CIRCLE ( 'NONE', #230, 1.499999999999996447 ) ;
#338 = CARTESIAN_POINT ( 'NONE',  ( 5.673657175620194254E-16, 0.000000000000000000, 0.1625000000000029199 ) ) ;
#339 = CARTESIAN_POINT ( 'NONE',  ( 1.316288464743861212E-13, 0.000000000000000000, 37.69999999999999574 ) ) ;
#340 = VERTEX_POINT ( 'NONE', #97 ) ;
#341 = CC_DESIGN_APPROVAL ( #158, ( #263 ) ) ;
#342 = EDGE_LOOP ( 'NONE', ( #274 ) ) ;
#343 = ORIENTED_EDGE ( 'NONE', *, *, #36, .T. ) ;
#344 = EDGE_LOOP ( 'NONE', ( #379 ) ) ;
#345 = CONICAL_SURFACE ( 'NONE', #43, 0.3517949192431112926, 1.047197551196587861 ) ;
#346 = ORIENTED_EDGE ( 'NONE', *, *, #284, .F. ) ;
#347 = AXIS2_PLACEMENT_3D ( 'NONE', #311, #92, #35 ) ;
#348 = PERSON_AND_ORGANIZATION ( #334, #156 ) ;
#349 = VERTEX_POINT ( 'NONE', #98 ) ;
#350 = EDGE_CURVE ( 'NONE', #134, #134, #394, .T. ) ;
#351 = ORIENTED_EDGE ( 'NONE', *, *, #225, .F. ) ;
#352 = COORDINATED_UNIVERSAL_TIME_OFFSET ( 1, 0, .AHEAD. ) ;
#353 = DIRECTION ( 'NONE',  ( 3.491481338843133355E-15, -0.000000000000000000, 1.000000000000000000 ) ) ;
#354 = APPROVAL ( #202, 'UNSPECIFIED' ) ;
#355 = COORDINATED_UNIVERSAL_TIME_OFFSET ( 1, 0, .AHEAD. ) ;
#356 = FACE_BOUND ( 'NONE', #231, .T. ) ;
#357 = CIRCLE ( 'NONE', #214, 0.5250000000000000222 ) ;
#358 = CALENDAR_DATE ( 2023, 27, 9 ) ;
#359 = APPROVAL_PERSON_ORGANIZATION ( #348, #158, #324 ) ;
#360 = CARTESIAN_POINT ( 'NONE',  ( 1.963958253099264484E-15, 0.000000000000000000, 0.5625000000000004441 ) ) ;
#361 = ADVANCED_FACE ( 'NONE', ( #211, #247 ), #161, .F. ) ;
#362 = ADVANCED_FACE ( 'NONE', ( #61, #189 ), #103, .F. ) ;
#363 = DIRECTION ( 'NONE',  ( 3.491481338843133355E-15, -0.000000000000000000, 1.000000000000000000 ) ) ;
#364 = CARTESIAN_POINT ( 'NONE',  ( 1.117274028429803147E-14, 0.000000000000000000, 3.200000000000001510 ) ) ;
#365 = CIRCLE ( 'NONE', #100, 0.2899999999999998690 ) ;
#366 = CC_DESIGN_APPROVAL ( #354, ( #179 ) ) ;
#367 = FACE_OUTER_BOUND ( 'NONE', #319, .T. ) ;
#368 = EDGE_CURVE ( 'NONE', #64, #64, #255, .T. ) ;
#369 = DIRECTION ( 'NONE',  ( 1.000000000000000000, 0.000000000000000000, 0.000000000000000000 ) ) ;
#370 = EDGE_LOOP ( 'NONE', ( #326 ) ) ;
#371 = CIRCLE ( 'NONE', #270, 0.3517949192431112926 ) ;
#372 = CARTESIAN_POINT ( 'NONE',  ( 1.326762908760390423E-13, 0.000000000000000000, 38.00000000000000000 ) ) ;
#373 = AXIS2_PLACEMENT_3D ( 'NONE', #333, #308, #283 ) ;
#374 = FACE_BOUND ( 'NONE', #109, .T. ) ;
#375 = VERTEX_POINT ( 'NONE', #44 ) ;
#376 = EDGE_LOOP ( 'NONE', ( #343 ) ) ;
#377 = AXIS2_PLACEMENT_3D ( 'NONE', #338, #32, #215 ) ;
#378 = AXIS2_PLACEMENT_3D ( 'NONE', #130, #251, #65 ) ;
#379 = ORIENTED_EDGE ( 'NONE', *, *, #368, .T. ) ;
#380 = ORIENTED_EDGE ( 'NONE', *, *, #70, .T. ) ;
#381 = DIRECTION ( 'NONE',  ( 3.491481338843133355E-15, -0.000000000000000000, 1.000000000000000000 ) ) ;
#382 = CONICAL_SURFACE ( 'NONE', #126, 0.5250000000000000222, 1.047197551196618281 ) ;
#383 = EDGE_LOOP ( 'NONE', ( #346 ) ) ;
#384 = LOCAL_TIME ( 10, 29, 48.00000000000000000, #355 ) ;
#385 = CARTESIAN_POINT ( 'NONE',  ( 1.614810119214940894E-15, 0.000000000000000000, 0.4624999999999976352 ) ) ;
#386 = COORDINATED_UNIVERSAL_TIME_OFFSET ( 1, 0, .AHEAD. ) ;
#387 = CARTESIAN_POINT ( 'NONE',  ( 1.178374951859548830E-15, 0.000000000000000000, 0.3374999999999975242 ) ) ;
#388 = DATE_TIME_ROLE ( 'creation_date' ) ;
#389 = CARTESIAN_POINT ( 'NONE',  ( 1.326762908760390423E-13, 0.000000000000000000, 38.00000000000000000 ) ) ;
#390 = AXIS2_PLACEMENT_3D ( 'NONE', #60, #184, #312 ) ;
#391 = DIRECTION ( 'NONE',  ( 1.000000000000000000, 0.000000000000000000, 0.000000000000000000 ) ) ;
#392 = FACE_OUTER_BOUND ( 'NONE', #293, .T. ) ;
#393 = DIRECTION ( 'NONE',  ( -1.000000000000000000, 0.000000000000000000, 3.491481338843133355E-15 ) ) ;
#394 = CIRCLE ( 'NONE', #67, 0.5250000000000000222 ) ;
#395 = PLANE ( 'NONE',  #235 ) ;
ENDSEC;
END-ISO-10303-21;
