ISO-10303-21;
HEADER;
FILE_DESCRIPTION (( 'STEP AP203' ),
    '1' );
FILE_NAME ('960450.step',
    '2023-09-27T08:29:47',
    ( '' ),
    ( '' ),
    'SwSTEP 2.0',
    'SolidWorks 2022',
    '' );
FILE_SCHEMA (( 'CONFIG_CONTROL_DESIGN' ));
ENDSEC;

DATA;
#1 = CARTESIAN_POINT ( 'NONE',  ( 1.345675099345788088E-15, 0.000000000000000000, 0.3854166666666658525 ) ) ;
#2 = CARTESIAN_POINT ( 'NONE',  ( 1.316288464743861212E-13, 0.000000000000000000, 37.69999999999999574 ) ) ;
#3 =( NAMED_UNIT ( * ) PLANE_ANGLE_UNIT ( ) SI_UNIT ( $, .RADIAN. ) );
#4 = DIRECTION ( 'NONE',  ( 1.000000000000000000, 0.000000000000000000, -3.489968719595544330E-15 ) ) ;
#5 = ADVANCED_FACE ( 'NONE', ( #261, #194 ), #165, .T. ) ;
#6 = APPROVAL_PERSON_ORGANIZATION ( #269, #76, #86 ) ;
#7 = CALENDAR_DATE ( 2023, 27, 9 ) ;
#8 = CARTESIAN_POINT ( 'NONE',  ( 7.637615428719239830E-16, 0.000000000000000000, 0.2187499999999967248 ) ) ;
#9 = DATE_TIME_ROLE ( 'classification_date' ) ;
#10 = ADVANCED_FACE ( 'NONE', ( #45, #234 ), #108, .T. ) ;
#11 = DATE_AND_TIME ( #7, #157 ) ;
#12 = CC_DESIGN_PERSON_AND_ORGANIZATION_ASSIGNMENT ( #133, #373, ( #349 ) ) ;
#13 = EDGE_LOOP ( 'NONE', ( #67 ) ) ;
#14 = CIRCLE ( 'NONE', #143, 0.4550000000000000155 ) ;
#15 = CARTESIAN_POINT ( 'NONE',  ( 0.4550000000000012368, 0.000000000000000000, 0.3645833333333332593 ) ) ;
#16 = ORIENTED_EDGE ( 'NONE', *, *, #322, .T. ) ;
#17 = ORIENTED_EDGE ( 'NONE', *, *, #69, .T. ) ;
#18 = EDGE_LOOP ( 'NONE', ( #21 ) ) ;
#19 = ADVANCED_FACE ( 'NONE', ( #321, #262 ), #89, .T. ) ;
#20 = AXIS2_PLACEMENT_3D ( 'NONE', #248, #302, #33 ) ;
#21 = ORIENTED_EDGE ( 'NONE', *, *, #135, .F. ) ;
#22 = DIRECTION ( 'NONE',  ( 1.000000000000000000, 0.000000000000000000, 0.000000000000000000 ) ) ;
#23 = DIRECTION ( 'NONE',  ( 3.491481338843133355E-15, -0.000000000000000000, 1.000000000000000000 ) ) ;
#24 = AXIS2_PLACEMENT_3D ( 'NONE', #205, #177, #79 ) ;
#25 = DIRECTION ( 'NONE',  ( 3.491481338843133355E-15, -0.000000000000000000, 1.000000000000000000 ) ) ;
#26 = DIRECTION ( 'NONE',  ( -1.000000000000000000, 0.000000000000000000, 3.514721328387074684E-15 ) ) ;
#27 = VERTEX_POINT ( 'NONE', #395 ) ;
#28 = DIRECTION ( 'NONE',  ( 1.000000000000000000, 0.000000000000000000, 0.000000000000000000 ) ) ;
#29 = DIRECTION ( 'NONE',  ( 1.000000000000000000, 0.000000000000000000, -3.489968719595544330E-15 ) ) ;
#30 = CARTESIAN_POINT ( 'NONE',  ( 0.4550000000000005151, 0.000000000000000000, 0.1354166666666640206 ) ) ;
#31 = CYLINDRICAL_SURFACE ( 'NONE', #169, 0.4550000000000000155 ) ;
#32 = SHAPE_DEFINITION_REPRESENTATION ( #198, #141 ) ;
#33 = DIRECTION ( 'NONE',  ( 1.000000000000000000, 0.000000000000000000, -3.491481338843133355E-15 ) ) ;
#34 = CONICAL_SURFACE ( 'NONE', #20, 0.2565358449660652962, 1.047197551196594967 ) ;
#35 = CALENDAR_DATE ( 2023, 27, 9 ) ;
#36 = ORIENTED_EDGE ( 'NONE', *, *, #308, .F. ) ;
#37 = APPROVAL_DATE_TIME ( #39, #52 ) ;
#38 = EDGE_LOOP ( 'NONE', ( #255 ) ) ;
#39 = DATE_AND_TIME ( #310, #122 ) ;
#40 = AXIS2_PLACEMENT_3D ( 'NONE', #203, #175, #293 ) ;
#41 = VERTEX_POINT ( 'NONE', #56 ) ;
#42 = EDGE_LOOP ( 'NONE', ( #74 ) ) ;
#43 = ADVANCED_FACE ( 'NONE', ( #354, #290 ), #82, .F. ) ;
#44 = DIRECTION ( 'NONE',  ( 1.000000000000000000, 0.000000000000000000, -4.625929269271490844E-15 ) ) ;
#45 = FACE_OUTER_BOUND ( 'NONE', #356, .T. ) ;
#46 = CYLINDRICAL_SURFACE ( 'NONE', #57, 0.3106624327025926946 ) ;
#47 = CC_DESIGN_PERSON_AND_ORGANIZATION_ASSIGNMENT ( #126, #162, ( #380 ) ) ;
#48 = CARTESIAN_POINT ( 'NONE',  ( 1.326762908760390423E-13, 0.000000000000000000, 38.00000000000000000 ) ) ;
#49 = CARTESIAN_POINT ( 'NONE',  ( 1.326762908760390423E-13, 0.000000000000000000, 38.00000000000000000 ) ) ;
#50 = CC_DESIGN_APPROVAL ( #52, ( #95 ) ) ;
#51 = DIRECTION ( 'NONE',  ( 1.000000000000000000, 0.000000000000000000, 0.000000000000000000 ) ) ;
#52 = APPROVAL ( #96, 'UNSPECIFIED' ) ;
#53 = FACE_OUTER_BOUND ( 'NONE', #372, .T. ) ;
#54 = CARTESIAN_POINT ( 'NONE',  ( 1.067980961487340868E-14, 0.000000000000000000, 3.058819045102516121 ) ) ;
#55 = DIRECTION ( 'NONE',  ( 3.491481338843133355E-15, -0.000000000000000000, 1.000000000000000000 ) ) ;
#56 = CARTESIAN_POINT ( 'NONE',  ( 0.2550000000000095524, 0.000000000000000000, 2.799999999999996270 ) ) ;
#57 = AXIS2_PLACEMENT_3D ( 'NONE', #48, #171, #51 ) ;
#58 = ADVANCED_FACE ( 'NONE', ( #327 ), #81, .F. ) ;
#59 = DIRECTION ( 'NONE',  ( 1.000000000000000000, 0.000000000000000000, -3.514721328387074684E-15 ) ) ;
#60 = APPROVAL_STATUS ( 'not_yet_approved' ) ;
#61 = ADVANCED_FACE ( 'NONE', ( #294, #80 ), #46, .T. ) ;
#62 = DIRECTION ( 'NONE',  ( -1.000000000000000000, 0.000000000000000000, 4.625929269271496366E-15 ) ) ;
#63 = CARTESIAN_POINT ( 'NONE',  ( 4.728047646350040591E-16, 0.000000000000000000, 0.1354166666666656305 ) ) ;
#64 = AXIS2_PLACEMENT_3D ( 'NONE', #1, #120, #87 ) ;
#65 = DATE_AND_TIME ( #335, #72 ) ;
#66 = CARTESIAN_POINT ( 'NONE',  ( 0.3106624327025936383, 0.000000000000000000, 0.2812499999999956701 ) ) ;
#67 = ORIENTED_EDGE ( 'NONE', *, *, #388, .F. ) ;
#68 = DATE_TIME_ROLE ( 'creation_date' ) ;
#69 = EDGE_CURVE ( 'NONE', #184, #184, #144, .T. ) ;
#70 = ORIENTED_EDGE ( 'NONE', *, *, #107, .T. ) ;
#71 = ORIENTED_EDGE ( 'NONE', *, *, #238, .F. ) ;
#72 = LOCAL_TIME ( 10, 29, 47.00000000000000000, #339 ) ;
#73 = AXIS2_PLACEMENT_3D ( 'NONE', #142, #147, #263 ) ;
#74 = ORIENTED_EDGE ( 'NONE', *, *, #355, .T. ) ;
#75 = EDGE_LOOP ( 'NONE', ( #348 ) ) ;
#76 = APPROVAL ( #244, 'UNSPECIFIED' ) ;
#77 = DIRECTION ( 'NONE',  ( 1.000000000000000000, 0.000000000000000000, -3.484935554417692655E-15 ) ) ;
#78 = AXIS2_PLACEMENT_3D ( 'NONE', #49, #359, #174 ) ;
#79 = DIRECTION ( 'NONE',  ( 1.000000000000000000, 0.000000000000000000, -3.491481338843133355E-15 ) ) ;
#80 = FACE_OUTER_BOUND ( 'NONE', #42, .T. ) ;
#81 = PLANE ( 'NONE',  #73 ) ;
#82 = PLANE ( 'NONE',  #387 ) ;
#83 = AXIS2_PLACEMENT_3D ( 'NONE', #385, #25, #201 ) ;
#84 = CARTESIAN_POINT ( 'NONE',  ( 0.3106624327025934162, 0.000000000000000000, 0.2187499999999956424 ) ) ;
#85 = FACE_OUTER_BOUND ( 'NONE', #13, .T. ) ;
#86 = APPROVAL_ROLE ( '' ) ;
#87 = DIRECTION ( 'NONE',  ( -1.000000000000000000, 0.000000000000000000, 3.455149780448310626E-15 ) ) ;
#88 = CYLINDRICAL_SURFACE ( 'NONE', #292, 0.3106624327025926946 ) ;
#89 = CONICAL_SURFACE ( 'NONE', #236, 0.2890741737109298048, 0.2617993877991429130 ) ;
#90 = FACE_OUTER_BOUND ( 'NONE', #105, .T. ) ;
#91 = DIRECTION ( 'NONE',  ( 1.000000000000000000, 0.000000000000000000, 0.000000000000000000 ) ) ;
#92 = CARTESIAN_POINT ( 'NONE',  ( 0.2550000000000017808, 0.000000000000000000, 0.4999999999999995559 ) ) ;
#93 = EDGE_CURVE ( 'NONE', #378, #378, #109, .T. ) ;
#94 = ORIENTED_EDGE ( 'NONE', *, *, #107, .F. ) ;
#95 = PRODUCT_DEFINITION_FORMATION_WITH_SPECIFIED_SOURCE ( 'ANY', '', #172, .NOT_KNOWN. ) ;
#96 = APPROVAL_STATUS ( 'not_yet_approved' ) ;
#97 = AXIS2_PLACEMENT_3D ( 'NONE', #2, #336, #62 ) ;
#98 = ORIENTED_EDGE ( 'NONE', *, *, #176, .F. ) ;
#99 = EDGE_LOOP ( 'NONE', ( #284 ) ) ;
#100 = CC_DESIGN_DATE_AND_TIME_ASSIGNMENT ( #250, #68, ( #349 ) ) ;
#101 = UNCERTAINTY_MEASURE_WITH_UNIT (LENGTH_MEASURE( 1.000000000000000082E-05 ), #274, 'distance_accuracy_value', 'NONE');
#102 = EDGE_LOOP ( 'NONE', ( #309 ) ) ;
#103 = CC_DESIGN_APPROVAL ( #76, ( #349 ) ) ;
#104 = EDGE_CURVE ( 'NONE', #195, #195, #367, .T. ) ;
#105 = EDGE_LOOP ( 'NONE', ( #70 ) ) ;
#106 = DIRECTION ( 'NONE',  ( 3.491481338843133355E-15, -0.000000000000000000, 1.000000000000000000 ) ) ;
#107 = EDGE_CURVE ( 'NONE', #312, #312, #279, .T. ) ;
#108 = CYLINDRICAL_SURFACE ( 'NONE', #254, 0.4550000000000000155 ) ;
#109 = CIRCLE ( 'NONE', #219, 0.4550000000000000155 ) ;
#110 = TOROIDAL_SURFACE ( 'NONE', #164, 1.254999999999999893, 1.000000000000000000 ) ;
#111 = CARTESIAN_POINT ( 'NONE',  ( 4.000655700757801179E-16, 0.000000000000000000, 0.1145833333333345916 ) ) ;
#112 = DIRECTION ( 'NONE',  ( -3.491481338843133355E-15, 0.000000000000000000, -1.000000000000000000 ) ) ;
#113 = MECHANICAL_CONTEXT ( 'NONE', #226, 'mechanical' ) ;
#114 = FACE_OUTER_BOUND ( 'NONE', #345, .T. ) ;
#115 = PERSON_AND_ORGANIZATION ( #311, #366 ) ;
#116 = CONICAL_SURFACE ( 'NONE', #152, 0.4550000000000000155, 1.047197551196612064 ) ;
#117 = FACE_OUTER_BOUND ( 'NONE', #259, .T. ) ;
#118 = CARTESIAN_POINT ( 'NONE',  ( 1.500000000000026423, 0.000000000000000000, 7.578055753010763063 ) ) ;
#119 = ADVANCED_FACE ( 'NONE', ( #324, #53 ), #264, .T. ) ;
#120 = DIRECTION ( 'NONE',  ( -3.491481338843133355E-15, 0.000000000000000000, -1.000000000000000000 ) ) ;
#121 = CARTESIAN_POINT ( 'NONE',  ( 4.728047646350040591E-16, 0.000000000000000000, 0.1354166666666656305 ) ) ;
#122 = LOCAL_TIME ( 10, 29, 47.00000000000000000, #191 ) ;
#123 = DIRECTION ( 'NONE',  ( 1.000000000000000000, 0.000000000000000000, -3.489968719595544330E-15 ) ) ;
#124 = APPROVAL_DATE_TIME ( #214, #76 ) ;
#125 = DIRECTION ( 'NONE',  ( 3.491481338843133355E-15, -0.000000000000000000, 1.000000000000000000 ) ) ;
#126 = PERSON_AND_ORGANIZATION ( #311, #366 ) ;
#127 = ADVANCED_FACE ( 'NONE', ( #114 ), #199, .F. ) ;
#128 = EDGE_CURVE ( 'NONE', #283, #283, #351, .T. ) ;
#129 = EDGE_LOOP ( 'NONE', ( #196 ) ) ;
#130 = PERSON_AND_ORGANIZATION_ROLE ( 'creator' ) ;
#131 = CIRCLE ( 'NONE', #138, 0.2550000000000000044 ) ;
#132 = EDGE_LOOP ( 'NONE', ( #223 ) ) ;
#133 = PERSON_AND_ORGANIZATION ( #311, #366 ) ;
#134 = EDGE_LOOP ( 'NONE', ( #270 ) ) ;
#135 = EDGE_CURVE ( 'NONE', #371, #371, #323, .T. ) ;
#136 = EDGE_LOOP ( 'NONE', ( #253 ) ) ;
#137 = CC_DESIGN_SECURITY_CLASSIFICATION ( #380, ( #95 ) ) ;
#138 = AXIS2_PLACEMENT_3D ( 'NONE', #208, #291, #390 ) ;
#139 = FACE_OUTER_BOUND ( 'NONE', #163, .T. ) ;
#140 = DIRECTION ( 'NONE',  ( 1.000000000000000000, 0.000000000000000000, -3.000481595618961472E-15 ) ) ;
#141 = ADVANCED_BREP_SHAPE_REPRESENTATION ( '960450', ( #267, #40 ), #247 ) ;
#142 = CARTESIAN_POINT ( 'NONE',  ( -2.793855072801843672E-33, 0.000000000000000000, -8.001918961215353273E-19 ) ) ;
#143 = AXIS2_PLACEMENT_3D ( 'NONE', #331, #183, #154 ) ;
#144 = CIRCLE ( 'NONE', #207, 0.3106624327025926946 ) ;
#145 = CARTESIAN_POINT ( 'NONE',  ( 1.272935904786564295E-15, 0.000000000000000000, 0.3645833333333348136 ) ) ;
#146 = VERTEX_POINT ( 'NONE', #241 ) ;
#147 = DIRECTION ( 'NONE',  ( 3.491481338843133355E-15, -0.000000000000000000, 1.000000000000000000 ) ) ;
#148 = CARTESIAN_POINT ( 'NONE',  ( 1.636631877582708111E-15, 0.000000000000000000, 0.4687499999999969469 ) ) ;
#149 = APPLICATION_PROTOCOL_DEFINITION ( 'international standard', 'config_control_design', 1994, #151 ) ;
#150 = ORIENTED_EDGE ( 'NONE', *, *, #384, .T. ) ;
#151 = APPLICATION_CONTEXT ( 'configuration controlled 3d designs of mechanical parts and assemblies' ) ;
#152 = AXIS2_PLACEMENT_3D ( 'NONE', #63, #188, #26 ) ;
#153 = FACE_BOUND ( 'NONE', #99, .T. ) ;
#154 = DIRECTION ( 'NONE',  ( 1.000000000000000000, 0.000000000000000000, -3.455149780448310626E-15 ) ) ;
#155 = FACE_OUTER_BOUND ( 'NONE', #167, .T. ) ;
#156 = PERSON_AND_ORGANIZATION ( #311, #366 ) ;
#157 = LOCAL_TIME ( 10, 29, 47.00000000000000000, #160 ) ;
#158 = DIRECTION ( 'NONE',  ( 3.491481338843133355E-15, -0.000000000000000000, 1.000000000000000000 ) ) ;
#159 = CARTESIAN_POINT ( 'NONE',  ( 0.2565358449660652962, 0.000000000000000000, -8.956901154433721177E-16 ) ) ;
#160 = COORDINATED_UNIVERSAL_TIME_OFFSET ( 1, 0, .AHEAD. ) ;
#161 = EDGE_LOOP ( 'NONE', ( #228 ) ) ;
#162 = PERSON_AND_ORGANIZATION_ROLE ( 'classification_officer' ) ;
#163 = EDGE_LOOP ( 'NONE', ( #281 ) ) ;
#164 = AXIS2_PLACEMENT_3D ( 'NONE', #246, #275, #393 ) ;
#165 = CYLINDRICAL_SURFACE ( 'NONE', #333, 1.499999999999998224 ) ;
#166 = VERTEX_POINT ( 'NONE', #316 ) ;
#167 = EDGE_LOOP ( 'NONE', ( #36 ) ) ;
#168 = EDGE_LOOP ( 'NONE', ( #98 ) ) ;
#169 = AXIS2_PLACEMENT_3D ( 'NONE', #334, #298, #28 ) ;
#170 = CONICAL_SURFACE ( 'NONE', #301, 0.3106624327025926946, 1.047197551196575871 ) ;
#171 = DIRECTION ( 'NONE',  ( 3.491481338843133355E-15, -0.000000000000000000, 1.000000000000000000 ) ) ;
#172 = PRODUCT ( '960450', '960450', '', ( #113 ) ) ;
#173 = CARTESIAN_POINT ( 'NONE',  ( 1.326762908760390423E-13, 0.000000000000000000, 38.00000000000000000 ) ) ;
#174 = DIRECTION ( 'NONE',  ( 1.000000000000000000, 0.000000000000000000, -5.782411586589388010E-15 ) ) ;
#175 = DIRECTION ( 'NONE',  ( 0.000000000000000000, 0.000000000000000000, 1.000000000000000000 ) ) ;
#176 = EDGE_CURVE ( 'NONE', #193, #193, #131, .T. ) ;
#177 = DIRECTION ( 'NONE',  ( 3.491481338843133355E-15, -0.000000000000000000, 1.000000000000000000 ) ) ;
#178 = DIRECTION ( 'NONE',  ( 3.491481338843133355E-15, -0.000000000000000000, 1.000000000000000000 ) ) ;
#179 = PERSON_AND_ORGANIZATION_ROLE ( 'design_owner' ) ;
#180 = FACE_OUTER_BOUND ( 'NONE', #75, .T. ) ;
#181 = EDGE_CURVE ( 'NONE', #166, #166, #360, .T. ) ;
#182 = CONICAL_SURFACE ( 'NONE', #64, 0.4550000000000000155, 1.047197551196612064 ) ;
#183 = DIRECTION ( 'NONE',  ( 3.491481338843133355E-15, -0.000000000000000000, 1.000000000000000000 ) ) ;
#184 = VERTEX_POINT ( 'NONE', #66 ) ;
#185 = APPROVAL_ROLE ( '' ) ;
#186 = FACE_OUTER_BOUND ( 'NONE', #225, .T. ) ;
#187 = PERSON_AND_ORGANIZATION_ROLE ( 'design_supplier' ) ;
#188 = DIRECTION ( 'NONE',  ( -3.491481338843133355E-15, 0.000000000000000000, -1.000000000000000000 ) ) ;
#189 = PERSON_AND_ORGANIZATION ( #311, #366 ) ;
#190 = ORIENTED_EDGE ( 'NONE', *, *, #176, .T. ) ;
#191 = COORDINATED_UNIVERSAL_TIME_OFFSET ( 1, 0, .AHEAD. ) ;
#192 = ORIENTED_EDGE ( 'NONE', *, *, #217, .F. ) ;
#193 = VERTEX_POINT ( 'NONE', #92 ) ;
#194 = FACE_OUTER_BOUND ( 'NONE', #379, .T. ) ;
#195 = VERTEX_POINT ( 'NONE', #159 ) ;
#196 = ORIENTED_EDGE ( 'NONE', *, *, #217, .T. ) ;
#197 = ORIENTED_EDGE ( 'NONE', *, *, #128, .F. ) ;
#198 = PRODUCT_DEFINITION_SHAPE ( 'NONE', 'NONE',  #349 ) ;
#199 = PLANE ( 'NONE',  #249 ) ;
#200 = APPROVAL_PERSON_ORGANIZATION ( #314, #52, #185 ) ;
#201 = DIRECTION ( 'NONE',  ( 1.000000000000000000, 0.000000000000000000, -4.625929269271496366E-15 ) ) ;
#202 = DIRECTION ( 'NONE',  ( 3.491481338843133355E-15, -0.000000000000000000, 1.000000000000000000 ) ) ;
#203 = CARTESIAN_POINT ( 'NONE',  ( 0.000000000000000000, 0.000000000000000000, 0.000000000000000000 ) ) ;
#204 = ADVANCED_FACE ( 'NONE', ( #139, #337 ), #34, .T. ) ;
#205 = CARTESIAN_POINT ( 'NONE',  ( 0.000000000000000000, 0.000000000000000000, 0.000000000000000000 ) ) ;
#206 = APPROVAL_PERSON_ORGANIZATION ( #156, #375, #221 ) ;
#207 = AXIS2_PLACEMENT_3D ( 'NONE', #386, #353, #265 ) ;
#208 = CARTESIAN_POINT ( 'NONE',  ( 1.745740669421568255E-15, 0.000000000000000000, 0.5000000000000004441 ) ) ;
#209 = DIRECTION ( 'NONE',  ( 1.000000000000000000, 0.000000000000000000, -3.401418580346683284E-15 ) ) ;
#210 = COORDINATED_UNIVERSAL_TIME_OFFSET ( 1, 0, .AHEAD. ) ;
#211 = DIRECTION ( 'NONE',  ( 1.000000000000000000, 0.000000000000000000, -3.000481595618961472E-15 ) ) ;
#212 = CIRCLE ( 'NONE', #352, 0.3106624327025926946 ) ;
#213 = DIRECTION ( 'NONE',  ( 3.491481338843133355E-15, -0.000000000000000000, 1.000000000000000000 ) ) ;
#214 = DATE_AND_TIME ( #343, #306 ) ;
#215 = CARTESIAN_POINT ( 'NONE',  ( 9.776147748760762351E-15, 0.000000000000000000, 2.799999999999997158 ) ) ;
#216 = PERSON_AND_ORGANIZATION ( #311, #366 ) ;
#217 = EDGE_CURVE ( 'NONE', #41, #41, #280, .T. ) ;
#218 = FACE_BOUND ( 'NONE', #376, .T. ) ;
#219 = AXIS2_PLACEMENT_3D ( 'NONE', #111, #202, #77 ) ;
#220 = EDGE_LOOP ( 'NONE', ( #318 ) ) ;
#221 = APPROVAL_ROLE ( '' ) ;
#222 = CARTESIAN_POINT ( 'NONE',  ( 0.4550000000000004041, 0.000000000000000000, 0.1145833333333330095 ) ) ;
#223 = ORIENTED_EDGE ( 'NONE', *, *, #181, .F. ) ;
#224 = CARTESIAN_POINT ( 'NONE',  ( 1.200000000000126299, 0.000000000000000000, 37.99999999999999289 ) ) ;
#225 = EDGE_LOOP ( 'NONE', ( #313 ) ) ;
#226 = APPLICATION_CONTEXT ( 'configuration controlled 3d designs of mechanical parts and assemblies' ) ;
#227 = CIRCLE ( 'NONE', #300, 1.500000000000000000 ) ;
#228 = ORIENTED_EDGE ( 'NONE', *, *, #128, .T. ) ;
#229 = ADVANCED_FACE ( 'NONE', ( #117, #363 ), #170, .T. ) ;
#230 = ADVANCED_FACE ( 'NONE', ( #155, #370 ), #110, .F. ) ;
#231 = EDGE_LOOP ( 'NONE', ( #344 ) ) ;
#232 = DIRECTION ( 'NONE',  ( 3.491481338843133355E-15, -0.000000000000000000, 1.000000000000000000 ) ) ;
#233 = PRODUCT_RELATED_PRODUCT_CATEGORY ( 'detail', '', ( #172 ) ) ;
#234 = FACE_OUTER_BOUND ( 'NONE', #161, .T. ) ;
#235 = AXIS2_PLACEMENT_3D ( 'NONE', #145, #232, #240 ) ;
#236 = AXIS2_PLACEMENT_3D ( 'NONE', #289, #266, #140 ) ;
#237 = CARTESIAN_POINT ( 'NONE',  ( 1.326762908760390423E-13, 1.199999999999993516, 38.00000000000000000 ) ) ;
#238 = EDGE_CURVE ( 'NONE', #303, #303, #340, .T. ) ;
#239 = CARTESIAN_POINT ( 'NONE',  ( 1.745740669421566678E-15, 0.3106624327025926391, 0.5000000000000000000 ) ) ;
#240 = DIRECTION ( 'NONE',  ( 1.000000000000000000, 0.000000000000000000, -3.455149780448310626E-15 ) ) ;
#241 = CARTESIAN_POINT ( 'NONE',  ( 0.2890741737109405185, 0.000000000000000000, 3.058819045102515233 ) ) ;
#242 = CC_DESIGN_PERSON_AND_ORGANIZATION_ASSIGNMENT ( #189, #130, ( #95 ) ) ;
#243 = CARTESIAN_POINT ( 'NONE',  ( 1.326762908760390423E-13, 0.000000000000000000, 38.00000000000000000 ) ) ;
#244 = APPROVAL_STATUS ( 'not_yet_approved' ) ;
#245 = FACE_OUTER_BOUND ( 'NONE', #102, .T. ) ;
#246 = CARTESIAN_POINT ( 'NONE',  ( 9.776147748760773395E-15, 0.000000000000000000, 2.799999999999999822 ) ) ;
#247 =( GEOMETRIC_REPRESENTATION_CONTEXT ( 3 ) GLOBAL_UNCERTAINTY_ASSIGNED_CONTEXT ( ( #101 ) ) GLOBAL_UNIT_ASSIGNED_CONTEXT ( ( #274, #3, #297 ) ) REPRESENTATION_CONTEXT ( 'NONE', 'WORKASPACE' ) );
#248 = CARTESIAN_POINT ( 'NONE',  ( 0.000000000000000000, 0.000000000000000000, 0.000000000000000000 ) ) ;
#249 = AXIS2_PLACEMENT_3D ( 'NONE', #237, #325, #350 ) ;
#250 = DATE_AND_TIME ( #35, #346 ) ;
#251 = DIRECTION ( 'NONE',  ( 3.491481338843133355E-15, -0.000000000000000000, 1.000000000000000000 ) ) ;
#252 = APPROVAL_DATE_TIME ( #11, #375 ) ;
#253 = ORIENTED_EDGE ( 'NONE', *, *, #104, .F. ) ;
#254 = AXIS2_PLACEMENT_3D ( 'NONE', #173, #106, #22 ) ;
#255 = ORIENTED_EDGE ( 'NONE', *, *, #104, .T. ) ;
#256 = COORDINATED_UNIVERSAL_TIME_OFFSET ( 1, 0, .AHEAD. ) ;
#257 = ORIENTED_EDGE ( 'NONE', *, *, #384, .F. ) ;
#258 = SECURITY_CLASSIFICATION_LEVEL ( 'unclassified' ) ;
#259 = EDGE_LOOP ( 'NONE', ( #197 ) ) ;
#260 = CC_DESIGN_APPROVAL ( #375, ( #380 ) ) ;
#261 = FACE_OUTER_BOUND ( 'NONE', #317, .T. ) ;
#262 = FACE_BOUND ( 'NONE', #231, .T. ) ;
#263 = DIRECTION ( 'NONE',  ( 1.000000000000000000, 0.000000000000000000, -3.491481338843133355E-15 ) ) ;
#264 = CYLINDRICAL_SURFACE ( 'NONE', #307, 0.2549999999999998934 ) ;
#265 = DIRECTION ( 'NONE',  ( 1.000000000000000000, 0.000000000000000000, -3.489968719595544330E-15 ) ) ;
#266 = DIRECTION ( 'NONE',  ( 3.491481338843133355E-15, -0.000000000000000000, 1.000000000000000000 ) ) ;
#267 = MANIFOLD_SOLID_BREP ( 'Corps-Déplacer/Copier1', #288 ) ;
#268 = DIRECTION ( 'NONE',  ( 3.491481338843133355E-15, -0.000000000000000000, 1.000000000000000000 ) ) ;
#269 = PERSON_AND_ORGANIZATION ( #311, #366 ) ;
#270 = ORIENTED_EDGE ( 'NONE', *, *, #238, .T. ) ;
#271 = CONICAL_SURFACE ( 'NONE', #97, 1.499999999999996447, 0.7853981633974501664 ) ;
#272 = FACE_OUTER_BOUND ( 'NONE', #278, .T. ) ;
#273 = DIRECTION ( 'NONE',  ( 3.491481338843133355E-15, -0.000000000000000000, 1.000000000000000000 ) ) ;
#274 =( LENGTH_UNIT ( ) NAMED_UNIT ( * ) SI_UNIT ( .MILLI., .METRE. ) );
#275 = DIRECTION ( 'NONE',  ( 3.491481338843133355E-15, -0.000000000000000000, 1.000000000000000000 ) ) ;
#276 = ADVANCED_FACE ( 'NONE', ( #368, #90 ), #271, .T. ) ;
#277 = CIRCLE ( 'NONE', #328, 0.2890741737109298048 ) ;
#278 = EDGE_LOOP ( 'NONE', ( #150 ) ) ;
#279 = CIRCLE ( 'NONE', #83, 1.499999999999996447 ) ;
#280 = CIRCLE ( 'NONE', #381, 0.2549999999999997824 ) ;
#281 = ORIENTED_EDGE ( 'NONE', *, *, #93, .F. ) ;
#282 = CC_DESIGN_PERSON_AND_ORGANIZATION_ASSIGNMENT ( #216, #187, ( #95 ) ) ;
#283 = VERTEX_POINT ( 'NONE', #15 ) ;
#284 = ORIENTED_EDGE ( 'NONE', *, *, #355, .F. ) ;
#285 = DESIGN_CONTEXT ( 'detailed design', #151, 'design' ) ;
#286 = EDGE_LOOP ( 'NONE', ( #17 ) ) ;
#287 = EDGE_LOOP ( 'NONE', ( #192 ) ) ;
#288 = CLOSED_SHELL ( 'NONE', ( #58, #204, #362, #338, #295, #229, #10, #369, #61, #43, #119, #230, #19, #5, #276, #127 ) ) ;
#289 = CARTESIAN_POINT ( 'NONE',  ( 1.067980961487340868E-14, 0.000000000000000000, 3.058819045102516121 ) ) ;
#290 = FACE_OUTER_BOUND ( 'NONE', #220, .T. ) ;
#291 = DIRECTION ( 'NONE',  ( 3.491481338843133355E-15, -0.000000000000000000, 1.000000000000000000 ) ) ;
#292 = AXIS2_PLACEMENT_3D ( 'NONE', #243, #251, #91 ) ;
#293 = DIRECTION ( 'NONE',  ( 1.000000000000000000, 0.000000000000000000, 0.000000000000000000 ) ) ;
#294 = FACE_OUTER_BOUND ( 'NONE', #132, .T. ) ;
#295 = ADVANCED_FACE ( 'NONE', ( #186, #305 ), #88, .T. ) ;
#296 = DIRECTION ( 'NONE',  ( 1.000000000000000000, 0.000000000000000000, -3.489968719595545119E-15 ) ) ;
#297 =( NAMED_UNIT ( * ) SI_UNIT ( $, .STERADIAN. ) SOLID_ANGLE_UNIT ( ) );
#298 = DIRECTION ( 'NONE',  ( 3.491481338843133355E-15, -0.000000000000000000, 1.000000000000000000 ) ) ;
#299 = VERTEX_POINT ( 'NONE', #358 ) ;
#300 = AXIS2_PLACEMENT_3D ( 'NONE', #304, #213, #361 ) ;
#301 = AXIS2_PLACEMENT_3D ( 'NONE', #330, #273, #4 ) ;
#302 = DIRECTION ( 'NONE',  ( 3.491481338843133355E-15, -0.000000000000000000, 1.000000000000000000 ) ) ;
#303 = VERTEX_POINT ( 'NONE', #84 ) ;
#304 = CARTESIAN_POINT ( 'NONE',  ( 2.645864024634994562E-14, 0.000000000000000000, 7.578055753010768392 ) ) ;
#305 = FACE_OUTER_BOUND ( 'NONE', #134, .T. ) ;
#306 = LOCAL_TIME ( 10, 29, 47.00000000000000000, #210 ) ;
#307 = AXIS2_PLACEMENT_3D ( 'NONE', #392, #23, #389 ) ;
#308 = EDGE_CURVE ( 'NONE', #146, #146, #277, .T. ) ;
#309 = ORIENTED_EDGE ( 'NONE', *, *, #388, .T. ) ;
#310 = CALENDAR_DATE ( 2023, 27, 9 ) ;
#311 = PERSON ( 'UNSPECIFIED', 'UNSPECIFIED', 'UNSPECIFIED', ('UNSPECIFIED'), ('UNSPECIFIED'), ('UNSPECIFIED') ) ;
#312 = VERTEX_POINT ( 'NONE', #341 ) ;
#313 = ORIENTED_EDGE ( 'NONE', *, *, #69, .F. ) ;
#314 = PERSON_AND_ORGANIZATION ( #311, #366 ) ;
#315 = CC_DESIGN_PERSON_AND_ORGANIZATION_ASSIGNMENT ( #115, #179, ( #172 ) ) ;
#316 = CARTESIAN_POINT ( 'NONE',  ( 0.3106624327025943599, 0.000000000000000000, 0.4999999999999993339 ) ) ;
#317 = EDGE_LOOP ( 'NONE', ( #94 ) ) ;
#318 = ORIENTED_EDGE ( 'NONE', *, *, #181, .T. ) ;
#319 = DIRECTION ( 'NONE',  ( 3.491481338843133355E-15, -0.000000000000000000, 1.000000000000000000 ) ) ;
#320 = CIRCLE ( 'NONE', #394, 0.4550000000000000155 ) ;
#321 = FACE_OUTER_BOUND ( 'NONE', #377, .T. ) ;
#322 = EDGE_CURVE ( 'NONE', #326, #326, #227, .T. ) ;
#323 = CIRCLE ( 'NONE', #78, 1.199999999999993516 ) ;
#324 = FACE_OUTER_BOUND ( 'NONE', #287, .T. ) ;
#325 = DIRECTION ( 'NONE',  ( -3.491481338843133355E-15, 0.000000000000000000, -1.000000000000000000 ) ) ;
#326 = VERTEX_POINT ( 'NONE', #118 ) ;
#327 = FACE_OUTER_BOUND ( 'NONE', #136, .T. ) ;
#328 = AXIS2_PLACEMENT_3D ( 'NONE', #54, #55, #211 ) ;
#329 = CARTESIAN_POINT ( 'NONE',  ( 1.745740669421568255E-15, 0.000000000000000000, 0.5000000000000004441 ) ) ;
#330 = CARTESIAN_POINT ( 'NONE',  ( 9.819791265496200149E-16, 0.000000000000000000, 0.2812499999999967804 ) ) ;
#331 = CARTESIAN_POINT ( 'NONE',  ( 1.345675099345788088E-15, 0.000000000000000000, 0.3854166666666658525 ) ) ;
#332 = AXIS2_PLACEMENT_3D ( 'NONE', #329, #178, #296 ) ;
#333 = AXIS2_PLACEMENT_3D ( 'NONE', #347, #319, #44 ) ;
#334 = CARTESIAN_POINT ( 'NONE',  ( 1.326762908760390423E-13, 0.000000000000000000, 38.00000000000000000 ) ) ;
#335 = CALENDAR_DATE ( 2023, 27, 9 ) ;
#336 = DIRECTION ( 'NONE',  ( -3.491481338843133355E-15, 0.000000000000000000, -1.000000000000000000 ) ) ;
#337 = FACE_BOUND ( 'NONE', #38, .T. ) ;
#338 = ADVANCED_FACE ( 'NONE', ( #218, #245 ), #116, .T. ) ;
#339 = COORDINATED_UNIVERSAL_TIME_OFFSET ( 1, 0, .AHEAD. ) ;
#340 = CIRCLE ( 'NONE', #374, 0.3106624327025926946 ) ;
#341 = CARTESIAN_POINT ( 'NONE',  ( 1.500000000000127898, 0.000000000000000000, 37.69999999999998863 ) ) ;
#342 = ORIENTED_EDGE ( 'NONE', *, *, #322, .F. ) ;
#343 = CALENDAR_DATE ( 2023, 27, 9 ) ;
#344 = ORIENTED_EDGE ( 'NONE', *, *, #308, .T. ) ;
#345 = EDGE_LOOP ( 'NONE', ( #382 ) ) ;
#346 = LOCAL_TIME ( 10, 29, 47.00000000000000000, #256 ) ;
#347 = CARTESIAN_POINT ( 'NONE',  ( 1.326762908760390423E-13, 0.000000000000000000, 38.00000000000000000 ) ) ;
#348 = ORIENTED_EDGE ( 'NONE', *, *, #93, .T. ) ;
#349 = PRODUCT_DEFINITION ( 'UNKNOWN', '', #95, #285 ) ;
#350 = DIRECTION ( 'NONE',  ( -1.000000000000000000, 0.000000000000000000, 3.491481338843133355E-15 ) ) ;
#351 = CIRCLE ( 'NONE', #235, 0.4550000000000000155 ) ;
#352 = AXIS2_PLACEMENT_3D ( 'NONE', #148, #268, #29 ) ;
#353 = DIRECTION ( 'NONE',  ( 3.491481338843133355E-15, -0.000000000000000000, 1.000000000000000000 ) ) ;
#354 = FACE_BOUND ( 'NONE', #168, .T. ) ;
#355 = EDGE_CURVE ( 'NONE', #299, #299, #212, .T. ) ;
#356 = EDGE_LOOP ( 'NONE', ( #257 ) ) ;
#357 = DIRECTION ( 'NONE',  ( -1.000000000000000000, 0.000000000000000000, 3.491481338843133355E-15 ) ) ;
#358 = CARTESIAN_POINT ( 'NONE',  ( 0.3106624327025943044, 0.000000000000000000, 0.4687499999999958367 ) ) ;
#359 = DIRECTION ( 'NONE',  ( 3.491481338843133355E-15, -0.000000000000000000, 1.000000000000000000 ) ) ;
#360 = CIRCLE ( 'NONE', #332, 0.3106624327025926391 ) ;
#361 = DIRECTION ( 'NONE',  ( 1.000000000000000000, 0.000000000000000000, -3.469446951953614189E-15 ) ) ;
#362 = ADVANCED_FACE ( 'NONE', ( #85, #180 ), #31, .T. ) ;
#363 = FACE_BOUND ( 'NONE', #286, .T. ) ;
#364 = VERTEX_POINT ( 'NONE', #30 ) ;
#365 = DIRECTION ( 'NONE',  ( 3.491481338843133355E-15, -0.000000000000000000, 1.000000000000000000 ) ) ;
#366 = ORGANIZATION ( 'UNSPECIFIED', 'UNSPECIFIED', '' ) ;
#367 = CIRCLE ( 'NONE', #24, 0.2565358449660652962 ) ;
#368 = FACE_BOUND ( 'NONE', #18, .T. ) ;
#369 = ADVANCED_FACE ( 'NONE', ( #153, #272 ), #182, .T. ) ;
#370 = FACE_OUTER_BOUND ( 'NONE', #129, .T. ) ;
#371 = VERTEX_POINT ( 'NONE', #224 ) ;
#372 = EDGE_LOOP ( 'NONE', ( #190 ) ) ;
#373 = PERSON_AND_ORGANIZATION_ROLE ( 'creator' ) ;
#374 = AXIS2_PLACEMENT_3D ( 'NONE', #8, #125, #123 ) ;
#375 = APPROVAL ( #60, 'UNSPECIFIED' ) ;
#376 = EDGE_LOOP ( 'NONE', ( #71 ) ) ;
#377 = EDGE_LOOP ( 'NONE', ( #342 ) ) ;
#378 = VERTEX_POINT ( 'NONE', #222 ) ;
#379 = EDGE_LOOP ( 'NONE', ( #16 ) ) ;
#380 = SECURITY_CLASSIFICATION ( '', '', #258 ) ;
#381 = AXIS2_PLACEMENT_3D ( 'NONE', #215, #158, #209 ) ;
#382 = ORIENTED_EDGE ( 'NONE', *, *, #135, .T. ) ;
#383 = CC_DESIGN_DATE_AND_TIME_ASSIGNMENT ( #65, #9, ( #380 ) ) ;
#384 = EDGE_CURVE ( 'NONE', #27, #27, #14, .T. ) ;
#385 = CARTESIAN_POINT ( 'NONE',  ( 1.316288464743861212E-13, 0.000000000000000000, 37.69999999999999574 ) ) ;
#386 = CARTESIAN_POINT ( 'NONE',  ( 9.819791265496200149E-16, 0.000000000000000000, 0.2812499999999967804 ) ) ;
#387 = AXIS2_PLACEMENT_3D ( 'NONE', #239, #112, #357 ) ;
#388 = EDGE_CURVE ( 'NONE', #364, #364, #320, .T. ) ;
#389 = DIRECTION ( 'NONE',  ( 1.000000000000000000, 0.000000000000000000, 0.000000000000000000 ) ) ;
#390 = DIRECTION ( 'NONE',  ( 1.000000000000000000, 0.000000000000000000, -3.401418580346680523E-15 ) ) ;
#391 = APPLICATION_PROTOCOL_DEFINITION ( 'international standard', 'config_control_design', 1994, #226 ) ;
#392 = CARTESIAN_POINT ( 'NONE',  ( 1.326762908760390423E-13, 0.000000000000000000, 38.00000000000000000 ) ) ;
#393 = DIRECTION ( 'NONE',  ( 1.000000000000000000, 0.000000000000000000, -3.491481338843133355E-15 ) ) ;
#394 = AXIS2_PLACEMENT_3D ( 'NONE', #121, #365, #59 ) ;
#395 = CARTESIAN_POINT ( 'NONE',  ( 0.4550000000000013478, 0.000000000000000000, 0.3854166666666642982 ) ) ;
ENDSEC;
END-ISO-10303-21;
